Song name
# A B C D E F G H I J K L M N O P Q R S T U V W X Y Z

Rise Against - To The Core tab

Tuning: Half-step down

Intro/Verse:
e|-----------------------------------|
B|-----------------------------------|
G|-----------------------------------|
D|---7-9-9-9-9-10-10-10-9-9-9-9------|
A|---7-9-9-9-9-10-10-10-9-9-9-9------|
E|---5-7-7-7-7--8--8--8-7-7-7-7------|

Chorus:x2
e|------------------------------------------------|
B|------------------------------------------------|
G|------------------------------------------------|
D|--2-2-2-2-2-3-3-3-3-3-2-2-2-2-2--5-5--3-3--2----|
A|--2-2-2-2-2-3-3-3-3-3-2-2-2-2-2--5-5--3-3--2----|
E|--0-0-0-0-0-1-1-1-1-1-0-0-0-0-0--3-3--1-1--0----|

Bridge:
e|---------------|-----------------------------------------|
B|---------------|-----------------------------------------|
G|---------------|-------------5-5-5-----------------------|
D|--7-7-7-7-7-7--|--3-3-3-3-3--5-5-5-5-5-5--7-7-7-7-7------|x4
A|--7-7-7-7-7-7--|--3-3-3-3-3--3-3-3-5-5-5--7-7-7-7-7------|
E|--5-5-5-5-5-5--|--1-1-1-1-1--------3-3-3--5-5-5-5-5------|
pm  . . . . . .

Should be easy to figure out the order.
Tap to rate this tab
# A B C D E F G H I J K L M N O P Q R S T U V W X Y Z