Rise Against - Injection tab

Injection
Rise Against
The Sufferer & The Witness (2006)

Injection:  written by Tim McIlrath, Chris Chasse, Joe Principe, and Brandon 
Barnes

GTR I - Eb Tuning "Tim McIlrath" (eb,Bb,Gb,Db,Ab,Eb)
GTR II - Eb Tuning "Chris Chasse" (eb,Bb,Gb,Db,Ab,Eb)

Chorus (Fade from Chamber the Cartridge)

   GTR I
eb|-------------------------------------------------|
Bb|-------------------------------------------------|
Gb|-------------------------------------------------|
Db|--7-----7--7--7--7--7--7--7--7--7--7--7--7--7--7-|
Ab|--7-----7--7--7--7--7--7--7--7--7--7--7--7--7--7-|
Eb|--5-----5--5--5--5--5--5--5--5--5--5--5--5--5--5-|
  |
  |GTR II
eb|-------------------------------------------------|
Bb|-------------------------------------------------|
Gb|-17----17-17-16-16-16-16-14-14-14-14-12-12-12-12-|
Db|--x-----x--x--x--x--x--x--x--x--x--x--x--x--x--x-|
Ab|-15----15-15-14-14-14-14-12-12-12-12-10-10-10-10-|
Eb|-------------------------------------------------|

   GTR I
eb|-------------------------------------------------|
Bb|-------------------------------------------------|
Gb|-10----10-10-10-10-10-10-10-10-10-10-10-10-10-10-|
Db|-10----10-10-10-10-10-10-10-10-10-10-10-10-10-10-|
Ab|--8-----8--8--8--8--8--8--8--8--8--8--8--8--8--8-|
Eb|-------------------------------------------------|
  |
  |GTR II
eb|-------------------------------------------------|
Bb|-------------------------------------------------|
Gb|-17----17-17-16-16-16-16-14-14-14-14-12-12-12-12-|
Db|--x-----x--x--x--x--x--x--x--x--x--x--x--x--x--x-|
Ab|-15----15-15-14-14-14-14-12-12-12-12-10-10-10-10-|
Eb|-------------------------------------------------|

   GTR I
eb|-------------------------------------------------|
Bb|-------------------------------------------------|
Gb|-------------------------------------------------|
Db|-10----10-10-10-10-10-10-10-10-10-10-10-10-10-10-|
Ab|-10----10-10-10-10-10-10-10-10-10-10-10-10-10-10-|
Eb|--8-----8--8--8--8--8--8--8--8--8--8--8--8--8--8-|
  |
  |GTR II
eb|-------------------------------------------------|
Bb|-------------------------------------------------|
Gb|-17----17-16/17-17/19-19\17-17\16-16\14-14/16----|
Db|--x-----x--x--x--x--x--x--x--x--x--x--x--x--x----|
Ab|-15----15-14/15-15/17-17\15-15\14-14\12-12/14----|
Eb|-------------------------------------------------|

   GTR I
eb|-------------------------------------------------|
Bb|-------------------------------------------------|
Gb|-------------------------------------------------|
Db|--5-----5--5--5--5--5--5--5--5--5--5--5--5--5--5-|
Ab|--5-----5--5--5--5--5--5--5--5--5--5--5--5--5--5-|
Eb|--3-----3--3--3--3--3--3--3--3--3--3--3--3--3--3-|
  |
  |GTR II
eb|-------------------------------------------------|
Bb|-------------------------------------------------|
Gb|-12----12-12-12-12-12-12-12-12-12-12-12-12-12-12-|
Db|--x-----x--x--x--x--x--x--x--x--x--x--x--x--x--x-|
Ab|-10----10-10-10-10-10-10-10-10-10-10-10-10-10-10-|
Eb|-------------------------------------------------|

   GTR I
eb|-------------------------------------------------|
Bb|-------------------------------------------------|
Gb|-------------------------------------------------|
Db|--7-----7--7--7--7--7--7--7--7--7--7--7--7--7--7-|
Ab|--7-----7--7--7--7--7--7--7--7--7--7--7--7--7--7-|
Eb|--5-----5--5--5--5--5--5--5--5--5--5--5--5--5--5-|
  |
  |GTR II
eb|-------------------------------------------------|
Bb|-------------------------------------------------|
Gb|-17----17-17-16-16-16-16-14-14-14-14-12-12-12-12-|
Db|--x-----x--x--x--x--x--x--x--x--x--x--x--x--x--x-|
Ab|-15----15-15-14-14-14-14-12-12-12-12-10-10-10-10-|
Eb|-------------------------------------------------|

   GTR I
eb|-------------------------------------------------|
Bb|-------------------------------------------------|
Gb|-10----10-10-10-10-10-10-10-10-10-10-10-10-10-10-|
Db|-10----10-10-10-10-10-10-10-10-10-10-10-10-10-10-|
Ab|--8-----8--8--8--8--8--8--8--8--8--8--8--8--8--8-|
Eb|-------------------------------------------------|
  |
  |GTR II
eb|-------------------------------------------------|
Bb|-------------------------------------------------|
Gb|-17----17-17-16-16-16-16-14-14-14-14-12-12-12-12-|
Db|--x-----x--x--x--x--x--x--x--x--x--x--x--x--x--x-|
Ab|-15----15-15-14-14-14-14-12-12-12-12-10-10-10-10-|
Eb|-------------------------------------------------|

   GTR I
eb|-------------------------------------------------|
Bb|-------------------------------------------------|
Gb|-------------------------------------------------|
Db|-10----10-10-10-10-10-10-10-10-10-10-10-10-10-10-|
Ab|-10----10-10-10-10-10-10-10-10-10-10-10-10-10-10-|
Eb|--8-----8--8--8--8--8--8--8--8--8--8--8--8--8--8-|
  |
  |GTR II
eb|-------------------------------------------------|
Bb|-------------------------------------------------|
Gb|-17----17-16/17-17/19-19\17-17\16-16\14-14/16----|
Db|--x-----x--x--x--x--x--x--x--x--x--x--x--x--x----|
Ab|-15----15-14/15-15/17-17\15-15\14-14\12-12/14----|
Eb|-------------------------------------------------|

   GTR I
eb|-------------------------------------------------|
Bb|-------------------------------------------------|
Gb|-------------------------------------------------|
Db|--5-----5--5--5--5--5--5--5--5--5--5--5--5--5--5-|
Ab|--5-----5--5--5--5--5--5--5--5--5--5--5--5--5--5-|
Eb|--3-----3--3--3--3--3--3--3--3--3--3--3--3--3--3-|
  |
  |GTR II
eb|-------------------------------------------------|
Bb|-------------------------------------------------|
Gb|-12----12-12-12-12-12-12-12-12-12-12-12-12-12-12-|
Db|--x-----x--x--x--x--x--x--x--x--x--x--x--x--x--x-|
Ab|-10----10-10-10-10-10-10-10-10-10-10-10-10-10-10-|
Eb|-------------------------------------------------|

Post Chorus

   GTR I
eb|-------------------------------------------------|
Bb|-------------------------------------------------|
Gb|-------------------------------------------------|
Db|--7----------------------------------------------|
Ab|--7----------------------------------------------|
Eb|--5----------------------------------------------|
  |
  |GTR II
eb|-------------------------------------------------|
Bb|--------------------8-----------------------8----|
Gb|-------------------------------------------------|
Db|--------7-----9h10--------------7-----9h10-------|
Ab|-----0-----------------0--0--0-----------------0-|
Eb|-------------------------------------------------|
        .                 .  .  .                 .

   GTR II
eb|-------------------------------------------------|
Bb|--------------------8-----------------------8----|
Gb|-------------------------------------------------|
Db|--------7-----9h10--------------7-----9h10-------|
Ab|--0--0-----------------0--0--0-------------------|
Eb|-------------------------------------------------|
     .  .                 .  .  .

Verse

   GTR I
eb|-------------------------------------------------|
Bb|-------------------------------------------------|
Gb|-------------------------------------------------|
Db|--7----------------------------------------------|
Ab|--7----------------------------------------------|
Eb|--5----------------------------------------------|
  |
  |GTR II
eb|-------------------------------------------------|
Bb|--------------------8-----------------------8----|
Gb|-------------------------------------------------|
Db|--------7-----9h10--------------7-----9h10-------|
Ab|-----0-----------------0--0--0-----------------0-|
Eb|-------------------------------------------------|
        .                 .  .  .                 .

   GTR II
eb|-------------------------------------------------|
Bb|--------------------8-----------------------8----|
Gb|-------------------------------------------------|
Db|--------7-----9h10--------------7-----9h10-------|
Ab|--0--0-----------------0--0--0-------------------|
Eb|-------------------------------------------------|
     .  .                 .  .  .

   GTR I
eb|-------------------------------------------------|
Bb|-------------------------------------------------|
Gb|-------------------------------------------------|
Db|--7----------------------------------------------|
Ab|--7----------------------------------------------|
Eb|--5----------------------------------------------|
  |
  |GTR II
eb|-------------------------------------------------|
Bb|--------------------8-----------------------8----|
Gb|-------------------------------------------------|
Db|--------7-----9h10--------------7-----9h10-------|
Ab|-----0-----------------0--0--0-----------------0-|
Eb|-------------------------------------------------|
        .                 .  .  .                 .

   GTR II
eb|-------------------------------------------------|
Bb|--------------------8-----------------------8----|
Gb|-------------------------------------------------|
Db|--------7-----9h10--------------7-----9h10-------|
Ab|--0--0-----------------0--0--0-------------------|
Eb|-------------------------------------------------|
     .  .                 .  .  .

   GTR I
eb|-------------------------------------------------|
Bb|-------------------------------------------------|
Gb|-------------------------------------------------|
Db|--7----------------------------------------------|
Ab|--7----------------------------------------------|
Eb|--5----------------------------------------------|
  |
  |GTR II
eb|-------------------------------------------------|
Bb|--------------------8-----------------------8----|
Gb|-------------------------------------------------|
Db|--------7-----9h10--------------7-----9h10-------|
Ab|-----0-----------------0--0--0-----------------0-|
Eb|-------------------------------------------------|
        .                 .  .  .                 .

   GTR II
eb|-------------------------------------------------|
Bb|--------------------8-----------------------8----|
Gb|-------------------------------------------------|
Db|--------7-----9h10--------------7-----9h10-------|
Ab|--0--0-----------------0--0--0-------------------|
Eb|-------------------------------------------------|
     .  .                 .  .  .

   GTR II
eb|-------------------------------------------------|
Bb|--------------------8-----------------------8----|
Gb|-------------------------------------------------|
Db|--------7-----9h10--------------7-----9h10-------|
Ab|-----0-----------------0--0--0-----------------0-|
Eb|-------------------------------------------------|
        .                 .  .  .                 .

   GTR I
eb|-------------------------------------------------|
Bb|-------------------------------------------------|
Gb|-------------------------------------------------|
Db|--3-----------------------2----------------------|
Ab|--3-----------------------3----------------------|
Eb|--1----------------------------------------------|
  |
  |GTR II
eb|-------------------------------------------------|
Bb|--------------------8-----------------------8----|
Gb|-------------------------------------------------|
Db|--------7-----9h10--------------7-----9h10-------|
Ab|--0--0-----------------0--0--0-------------------|
Eb|-------------------------------------------------|
     .  .                 .  .  .

Pre Chorus

   GTR I
eb|-------------------------------------------------|
Bb|-------------------------------------------------|
Gb|-------------------------------------------------|
Db|--2-----2--2--2--2--2--2--2--2--2--2--2--2--2----|
Ab|--2-----2--2--2--2--2--2--2--2--2--2--2--2--2----|
Eb|--0-----0--0--0--0--0--0--0--0--0--0--0--0--0----|
  |
  |GTR II
eb|-------------------------------------------------|
Bb|-------------------------------------------------|
Gb|--9-----9--9--9--9--9--9--9--9--9--9--9--9--9----|
Db|--x-----x--x--x--x--x--x--x--x--x--x--x--x--x----|
Ab|--7-----7--7--7--7--7--7--7--7--7--7--7--7--7----|
Eb|-------------------------------------------------|

   GTR I
eb|-------------------------------------------------|
Bb|-------------------------------------------------|
Gb|-------------------------------------------------|
Db|--2-----2--2--2--2--2--2-------------------------|
Ab|--2-----2--2--2--2--2--2--Pickslide--------------|
Eb|--0-----0--0--0--0--0--0--Pickslide--------------|
  |
  |GTR II
eb|-------------------------------------------------|
Bb|-------------------------------------------------|
Gb|-10----10-10-10-10-10-10-12----12-12-12-12-12-12-|
Db|--x-----x--x--x--x--x--x--x-----x--x--x--x--x--x-|
Ab|--8-----8--8--8--8--8--8-10----10-10-10-10-10-10-|
Eb|-------------------------------------------------|

Chorus

   GTR I
eb|-------------------------------------------------|
Bb|-------------------------------------------------|
Gb|-------------------------------------------------|
Db|--7-----7--7--7--7--7--7--7--7--7--7--7--7--7--7-|
Ab|--7-----7--7--7--7--7--7--7--7--7--7--7--7--7--7-|
Eb|--5-----5--5--5--5--5--5--5--5--5--5--5--5--5--5-|
  |
  |GTR II
eb|-------------------------------------------------|
Bb|-------------------------------------------------|
Gb|-17----17-17-16-16-16-16-14-14-14-14-12-12-12-12-|
Db|--x-----x--x--x--x--x--x--x--x--x--x--x--x--x--x-|
Ab|-15----15-15-14-14-14-14-12-12-12-12-10-10-10-10-|
Eb|-------------------------------------------------|

   GTR I
eb|-------------------------------------------------|
Bb|-------------------------------------------------|
Gb|-10----10-10-10-10-10-10-10-10-10-10-10-10-10-10-|
Db|-10----10-10-10-10-10-10-10-10-10-10-10-10-10-10-|
Ab|--8-----8--8--8--8--8--8--8--8--8--8--8--8--8--8-|
Eb|-------------------------------------------------|
  |
  |GTR II
eb|-------------------------------------------------|
Bb|-------------------------------------------------|
Gb|-17----17-17-16-16-16-16-14-14-14-14-12-12-12-12-|
Db|--x-----x--x--x--x--x--x--x--x--x--x--x--x--x--x-|
Ab|-15----15-15-14-14-14-14-12-12-12-12-10-10-10-10-|
Eb|-------------------------------------------------|

   GTR I
eb|-------------------------------------------------|
Bb|-------------------------------------------------|
Gb|-------------------------------------------------|
Db|-10----10-10-10-10-10-10-10-10-10-10-10-10-10-10-|
Ab|-10----10-10-10-10-10-10-10-10-10-10-10-10-10-10-|
Eb|--8-----8--8--8--8--8--8--8--8--8--8--8--8--8--8-|
  |
  |GTR II
eb|-------------------------------------------------|
Bb|-------------------------------------------------|
Gb|-17----17-16/17-17/19-19\17-17\16-16\14-14/16----|
Db|--x-----x--x--x--x--x--x--x--x--x--x--x--x--x----|
Ab|-15----15-14/15-15/17-17\15-15\14-14\12-12/14----|
Eb|-------------------------------------------------|

   GTR I
eb|-------------------------------------------------|
Bb|-------------------------------------------------|
Gb|-------------------------------------------------|
Db|--5-----5--5--5--5--5--5--5--5--5--5--5--5--5--5-|
Ab|--5-----5--5--5--5--5--5--5--5--5--5--5--5--5--5-|
Eb|--3-----3--3--3--3--3--3--3--3--3--3--3--3--3--3-|
  |
  |GTR II
eb|-------------------------------------------------|
Bb|-------------------------------------------------|
Gb|-12----12-12-12-12-12-12-12-12-12-12-12-12-12-12-|
Db|--x-----x--x--x--x--x--x--x--x--x--x--x--x--x--x-|
Ab|-10----10-10-10-10-10-10-10-10-10-10-10-10-10-10-|
Eb|-------------------------------------------------|

   GTR I
eb|-------------------------------------------------|
Bb|-------------------------------------------------|
Gb|-------------------------------------------------|
Db|--7-----7--7--7--7--7--7--7--7--7--7--7--7--7--7-|
Ab|--7-----7--7--7--7--7--7--7--7--7--7--7--7--7--7-|
Eb|--5-----5--5--5--5--5--5--5--5--5--5--5--5--5--5-|
  |
  |GTR II
eb|-------------------------------------------------|
Bb|-------------------------------------------------|
Gb|-17----17-17-16-16-16-16-14-14-14-14-12-12-12-12-|
Db|--x-----x--x--x--x--x--x--x--x--x--x--x--x--x--x-|
Ab|-15----15-15-14-14-14-14-12-12-12-12-10-10-10-10-|
Eb|-------------------------------------------------|

   GTR I
eb|-------------------------------------------------|
Bb|-------------------------------------------------|
Gb|-10----10-10-10-10-10-10-10-10-10-10-10-10-10-10-|
Db|-10----10-10-10-10-10-10-10-10-10-10-10-10-10-10-|
Ab|--8-----8--8--8--8--8--8--8--8--8--8--8--8--8--8-|
Eb|-------------------------------------------------|
  |
  |GTR II
eb|-------------------------------------------------|
Bb|-------------------------------------------------|
Gb|-17----17-17-16-16-16-16-14-14-14-14-12-12-12-12-|
Db|--x-----x--x--x--x--x--x--x--x--x--x--x--x--x--x-|
Ab|-15----15-15-14-14-14-14-12-12-12-12-10-10-10-10-|
Eb|-------------------------------------------------|

   GTR I
eb|-------------------------------------------------|
Bb|-------------------------------------------------|
Gb|-------------------------------------------------|
Db|-10----10-10-10-10-10-10-10-10-10-10-10-10-10-10-|
Ab|-10----10-10-10-10-10-10-10-10-10-10-10-10-10-10-|
Eb|--8-----8--8--8--8--8--8--8--8--8--8--8--8--8--8-|
  |
  |GTR II
eb|-------------------------------------------------|
Bb|-------------------------------------------------|
Gb|-17----17-16/17-17/19-19\17-17\16-16\14-14/16----|
Db|--x-----x--x--x--x--x--x--x--x--x--x--x--x--x----|
Ab|-15----15-14/15-15/17-17\15-15\14-14\12-12/14----|
Eb|-------------------------------------------------|

   GTR I
eb|-------------------------------------------------|
Bb|-------------------------------------------------|
Gb|-------------------------------------------------|
Db|--5-----5--5--5--5--5--5--5--5--5--5--5--5--5--5-|
Ab|--5-----5--5--5--5--5--5--5--5--5--5--5--5--5--5-|
Eb|--3-----3--3--3--3--3--3--3--3--3--3--3--3--3--3-|
  |
  |GTR II
eb|-------------------------------------------------|
Bb|-------------------------------------------------|
Gb|-12----12-12-12-12-12-12-12-12-12-12-12-12-12-12-|
Db|--x-----x--x--x--x--x--x--x--x--x--x--x--x--x--x-|
Ab|-10----10-10-10-10-10-10-10-10-10-10-10-10-10-10-|
Eb|-------------------------------------------------|

Post Chorus

   GTR I
eb|-------------------------------------------------|
Bb|-------------------------------------------------|
Gb|-------------------------------------------------|
Db|--7----------------------------------------------|
Ab|--7----------------------------------------------|
Eb|--5----------------------------------------------|
  |
  |GTR II
eb|-------------------------------------------------|
Bb|--------------------8-----------------------8----|
Gb|-------------------------------------------------|
Db|--------7-----9h10--------------7-----9h10-------|
Ab|-----0-----------------0--0--0-----------------0-|
Eb|-------------------------------------------------|
        .                 .  .  .                 . 

   GTR II
eb|-------------------------------------------------|
Bb|--------------------8-----------------------8----|
Gb|-------------------------------------------------|
Db|--------7-----9h10--------------7-----9h10-------|
Ab|--0--0-----------------0--0--0-------------------|
Eb|-------------------------------------------------|
     .  .                 .  .  .

Verse 2

   GTR I
eb|-------------------------------------------------|
Bb|-------------------------------------------------|
Gb|-12------/14-------------------------------------|
Db|--x--------x-------------------------------------|
Ab|-10------/12-------------------------------------|
Eb|-------------------------------------------------|
  |
  |GTR II
eb|-------------------------------------------------|
Bb|--------------------8-----------------------8----|
Gb|-------------------------------------------------|
Db|--------7-----9h10--------------7-----9h10-------|
Ab|-----0-----------------0--0--0-----------------0-|
Eb|-------------------------------------------------|
        .                 .  .  .                 .

   GTR I
eb|-------------------------------------------------|
Bb|-------------------------------------------------|
Gb|----------------------------------------10-------|
Db|-----------------------------------------x-------|
Ab|-----------------------------------------8-------|
Eb|-------------------------------------------------|
  |
  |GTR II
eb|-------------------------------------------------|
Bb|--------------------8-----------------------8----|
Gb|-------------------------------------------------|
Db|--------7-----9h10--------------7-----9h10-------|
Ab|--0--0-----------------0--0--0-------------------|
Eb|-------------------------------------------------|
     .  .                 .  .  .

   GTR I
eb|-------------------------------------------------|
Bb|-------------------------------------------------|
Gb|-\9----------------------------------------------|
Db|--x----------------------------------------------|
Ab|-\7----------------------------------------------|
Eb|-------------------------------------------------|
  |
  |GTR II
eb|-------------------------------------------------|
Bb|--------------------8-----------------------8----|
Gb|-------------------------------------------------|
Db|--------7-----9h10--------------7-----9h10-------|
Ab|-----0-----------------0--0--0-----------------0-|
Eb|-------------------------------------------------|
        .                 .  .  .                 .

   GTR II
eb|-------------------------------------------------|
Bb|--------------------8-----------------------8----|
Gb|-------------------------------------------------|
Db|--------7-----9h10--------------7-----9h10-------|
Ab|--0--0-----------------0--0--0-------------------|
Eb|-------------------------------------------------|
     .  .                 .  .  .

   GTR I
eb|-------------------------------------------------|
Bb|-------------------------------------------------|
Gb|-(5)---------------------------------------------|
Db|-------------------------------------------------|
Ab|-------------------------------------------------|
Eb|-------------------------------------------------|
  |
  |GTR II
eb|-------------------------------------------------|
Bb|--------------------8-----------------------8----|
Gb|-------------------------------------------------|
Db|--------7-----9h10--------------7-----9h10-------|
Ab|-----0-----------------0--0--0-----------------0-|
Eb|-------------------------------------------------|
        .                 .  .  .                 .

   GTR I
eb|-------------------------------------------------|
Bb|-(5)---------------------------------------------|
Gb|-------------------------------------------------|
Db|-------------------------------------------------|
Ab|-------------------------------------------------|
Eb|-------------------------------------------------|
  |
  |GTR II
eb|-------------------------------------------------|
Bb|--------------------8-----------------------8----|
Gb|-------------------------------------------------|
Db|--------7-----9h10--------------7-----9h10-------|
Ab|--0--0-----------------0--0--0-------------------|
Eb|-------------------------------------------------|
     .  .                 .  .  .

   GTR I
eb|-------------------------------------------------|
Bb|-------------------------------------------------|
Gb|--9----------------------------------------------|
Db|--9----------------------------------------------|
Ab|--7----------------------------------------------|
Eb|-------------------------------------------------|
  |
  |GTR II
eb|-------------------------------------------------|
Bb|--------------------8-----------------------8----|
Gb|-------------------------------------------------|
Db|--------7-----9h10--------------7-----9h10-------|
Ab|-----0-----------------0--0--0-----------------0-|
Eb|-------------------------------------------------|
        .                 .  .  .                 .

   GTR I
eb|-------------------------------------------------|
Bb|-------------------------------------------------|
Gb|--------------------------5-----5--5--5--5--5--5-|
Db|--------------------------5-----5--5--5--5--5--5-|
Ab|--Pickslide---------------3-----3--3--3--3--3--3-|
Eb|--Pickslide--------------------------------------|
  |
  |GTR II
eb|-------------------------------------------------|
Bb|--------------------8----------------------------|
Gb|-------------------------14----14-14-14-14-14-14-|
Db|--------7-----9h10--------x-----x--x--x--x--x--x-|
Ab|--0--0-------------------12----12-12-12-12-12-12-|
Eb|-------------------------------------------------|
     .  .                           

Pre Chorus 2

   GTR I
eb|-------------------------------------------------|
Bb|-------------------------------------------------|
Gb|-------------------------------------------------|
Db|--2-----2--2-------------------------------------|
Ab|--2-----2--2-------------------------------------|
Eb|--0-----0--0-------------------------------------|
  |
  |GTR II
eb|-------------------------------------------------|
Bb|-------------------------------------------------|
Gb|--9-----9--9--9--9--9--9--9--9--9--9--9--9--9----|
Db|--x-----x--x--x--x--x--x--x--x--x--x--x--x--x----|
Ab|--7-----7--7--7--7--7--7--7--7--7--7--7--7--7----|
Eb|-------------------------------------------------|

   GTR I
eb|-------------------------------------------------|
Bb|-------------------------------------------------|
Gb|-------------------------------------------------|
Db|--2-----2--2--2--2--2--2-------------------------|
Ab|--2-----2--2--2--2--2--2--Pickslide--------------|
Eb|--0-----0--0--0--0--0--0--Pickslide--------------|
  |
  |GTR II
eb|-------------------------------------------------|
Bb|-------------------------------------------------|
Gb|-10----10-10-10-10-10-10-12----12-12-12-12-12-12-|
Db|--x-----x--x--x--x--x--x--x-----x--x--x--x--x--x-|
Ab|--8-----8--8--8--8--8--8-10----10-10-10-10-10-10-|
Eb|-------------------------------------------------|

Chorus

   GTR I
eb|-------------------------------------------------|
Bb|-------------------------------------------------|
Gb|-------------------------------------------------|
Db|--7-----7--7--7--7--7--7--7--7--7--7--7--7--7--7-|
Ab|--7-----7--7--7--7--7--7--7--7--7--7--7--7--7--7-|
Eb|--5-----5--5--5--5--5--5--5--5--5--5--5--5--5--5-|
  |
  |GTR II
eb|-------------------------------------------------|
Bb|-------------------------------------------------|
Gb|-17----17-17-16-16-16-16-14-14-14-14-12-12-12-12-|
Db|--x-----x--x--x--x--x--x--x--x--x--x--x--x--x--x-|
Ab|-15----15-15-14-14-14-14-12-12-12-12-10-10-10-10-|
Eb|-------------------------------------------------|

   GTR I
eb|-------------------------------------------------|
Bb|-------------------------------------------------|
Gb|-10----10-10-10-10-10-10-10-10-10-10-10-10-10-10-|
Db|-10----10-10-10-10-10-10-10-10-10-10-10-10-10-10-|
Ab|--8-----8--8--8--8--8--8--8--8--8--8--8--8--8--8-|
Eb|-------------------------------------------------|
  |
  |GTR II
eb|-------------------------------------------------|
Bb|-------------------------------------------------|
Gb|-17----17-17-16-16-16-16-14-14-14-14-12-12-12-12-|
Db|--x-----x--x--x--x--x--x--x--x--x--x--x--x--x--x-|
Ab|-15----15-15-14-14-14-14-12-12-12-12-10-10-10-10-|
Eb|-------------------------------------------------|

   GTR I
eb|-------------------------------------------------|
Bb|-------------------------------------------------|
Gb|-------------------------------------------------|
Db|-10----10-10-10-10-10-10-10-10-10-10-10-10-10-10-|
Ab|-10----10-10-10-10-10-10-10-10-10-10-10-10-10-10-|
Eb|--8-----8--8--8--8--8--8--8--8--8--8--8--8--8--8-|
  |
  |GTR II
eb|-------------------------------------------------|
Bb|-------------------------------------------------|
Gb|-17----17-16/17-17/19-19\17-17\16-16\14-14/16----|
Db|--x-----x--x--x--x--x--x--x--x--x--x--x--x--x----|
Ab|-15----15-14/15-15/17-17\15-15\14-14\12-12/14----|
Eb|-------------------------------------------------|

   GTR I
eb|-------------------------------------------------|
Bb|-------------------------------------------------|
Gb|-------------------------------------------------|
Db|--5-----5--5--5--5--5--5--5--5--5--5--5--5--5--5-|
Ab|--5-----5--5--5--5--5--5--5--5--5--5--5--5--5--5-|
Eb|--3-----3--3--3--3--3--3--3--3--3--3--3--3--3--3-|
  |
  |GTR II
eb|-------------------------------------------------|
Bb|-------------------------------------------------|
Gb|-12----12-12-12-12-12-12-12-12-12-12-12-12-12-12-|
Db|--x-----x--x--x--x--x--x--x--x--x--x--x--x--x--x-|
Ab|-10----10-10-10-10-10-10-10-10-10-10-10-10-10-10-|
Eb|-------------------------------------------------|

   GTR I
eb|-------------------------------------------------|
Bb|-------------------------------------------------|
Gb|-------------------------------------------------|
Db|--7-----7--7--7--7--7--7--7--7--7--7--7--7--7--7-|
Ab|--7-----7--7--7--7--7--7--7--7--7--7--7--7--7--7-|
Eb|--5-----5--5--5--5--5--5--5--5--5--5--5--5--5--5-|
  |
  |GTR II
eb|-------------------------------------------------|
Bb|-------------------------------------------------|
Gb|-17----17-17-16-16-16-16-14-14-14-14-12-12-12-12-|
Db|--x-----x--x--x--x--x--x--x--x--x--x--x--x--x--x-|
Ab|-15----15-15-14-14-14-14-12-12-12-12-10-10-10-10-|
Eb|-------------------------------------------------|

   GTR I
eb|-------------------------------------------------|
Bb|-------------------------------------------------|
Gb|-10----10-10-10-10-10-10-10-10-10-10-10-10-10-10-|
Db|-10----10-10-10-10-10-10-10-10-10-10-10-10-10-10-|
Ab|--8-----8--8--8--8--8--8--8--8--8--8--8--8--8--8-|
Eb|-------------------------------------------------|
  |
  |GTR II
eb|-------------------------------------------------|
Bb|-------------------------------------------------|
Gb|-17----17-17-16-16-16-16-14-14-14-14-12-12-12-12-|
Db|--x-----x--x--x--x--x--x--x--x--x--x--x--x--x--x-|
Ab|-15----15-15-14-14-14-14-12-12-12-12-10-10-10-10-|
Eb|-------------------------------------------------|

   GTR I
eb|-------------------------------------------------|
Bb|-------------------------------------------------|
Gb|-------------------------------------------------|
Db|-10----10-10-10-10-10-10-10-10-10-10-10-10-10-10-|
Ab|-10----10-10-10-10-10-10-10-10-10-10-10-10-10-10-|
Eb|--8-----8--8--8--8--8--8--8--8--8--8--8--8--8--8-|
  |
  |GTR II
eb|-------------------------------------------------|
Bb|-------------------------------------------------|
Gb|-17----17-16/17-17/19-19\17-17\16-16\14-14/16----|
Db|--x-----x--x--x--x--x--x--x--x--x--x--x--x--x----|
Ab|-15----15-14/15-15/17-17\15-15\14-14\12-12/14----|
Eb|-------------------------------------------------|

   GTR I
eb|-------------------------------------------------|
Bb|-------------------------------------------------|
Gb|-------------------------------------------------|
Db|--5-----5--5--5--5--5--5--5--5--5--5--5--5--5--5-|
Ab|--5-----5--5--5--5--5--5--5--5--5--5--5--5--5--5-|
Eb|--3-----3--3--3--3--3--3--3--3--3--3--3--3--3--3-|
  |
  |GTR II
eb|-------------------------------------------------|
Bb|-------------------------------------------------|
Gb|-12----12-12-12-12-12-12-12-12-12-12-12-12-12-12-|
Db|--x-----x--x--x--x--x--x--x--x--x--x--x--x--x--x-|
Ab|-10----10-10-10-10-10-10-10-10-10-10-10-10-10-10-|
Eb|-------------------------------------------------|

Bridge

   GTR I
eb|-------------------------------------------------|
Bb|-------------------------------------------------|
Gb|-------------------------------------------------|
Db|--7--7--7--7--------7--7--7--7-------------------|
Ab|--7--7--7--7--------7--7--7--7-------------------|
Eb|--5--5--5--5--------5--5--5--5-------------------|
  |
  |GTR II
eb|-------------------------------------------------|
Bb|-------------------------------------------------|
Gb|-14-14-14-14-------14-14-14-14-------------------|
Db|--x--x--x--x--------x--x--x--x-------------------|
Ab|-12-12-12-12-------12-12-12-12-------------------|
Eb|-------------------------------------------------|

   GTR I
eb|-------------------------------------------------|
Bb|-------------------------------------------------|
Gb|--------------------------------------4----/5----|
Db|--3--3--3--3--------3-----------------x-----x----|
Ab|--3--3--3--3--------3-----------------2----/3----|
Eb|--1--1--1--1--------1----------------------------|
  |
  |GTR II
eb|-------------------------------------------------|
Bb|-------------------------------------------------|
Gb|-10-10-10-10-------10----------------------------|
Db|--x--x--x--x--------x----------------------------|
Ab|--8--8--8--8--------8----------------------------|
Eb|-------------------------------------------------|

   GTR I
eb|-------------------------------------------------|
Bb|-------------------------------------------------|
Gb|-------------------------------------------------|
Db|--5--5--5--5--------5--5--5--5-------------------|
Ab|--5--5--5--5--------5--5--5--5-------------------|
Ab|--3--3--3--3--------3--3--3--3-------------------|
  |
  |GTR II
eb|-------------------------------------------------|
Bb|-------------------------------------------------|
Gb|--9--9--9--9--------9--9--9--9-------------------|
Db|--x--x--x--x--------x--x--x--x-------------------|
Ab|--7--7--7--7--------7--7--7--7-------------------|
Eb|-------------------------------------------------|

   GTR I
eb|-------------------------------------------------|
Bb|-------------------------------------------------|
Gb|-------------------------------------------------|
Db|--3--3--3--3--------3----------------------------|
Ab|--3--3--3--3--------3-----------------2h-3p-2p-0-|
Eb|--1--1--1--1--------1----------------------------|
  |
  |GTR II
eb|-------------------------------------------------|
Bb|-------------------------------------------------|
Gb|--9--9--9--9--------9----------------------------|
Db|--x--x--x--x--------x----------------------------|
Ab|--7--7--7--7--------7----------------------------|
Eb|-------------------------------------------------|

   GTR I
eb|-------------------------------------------------|
Bb|-------------------------------------------------|
Gb|-------------------------------------------------|
Db|--7--7--7--7--------7--7--7--7-------------------|
Ab|--7--7--7--7--------7--7--7--7-------------------|
Eb|--5--5--5--5--------5--5--5--5-------------------|
  |
  |GTR II
eb|-------------------------------------------------|
Bb|-------------------------------------------------|
Gb|-14-14-14-14-------14-14-14-14-------------------|
Db|--x--x--x--x--------x--x--x--x-------------------|
Ab|-12-12-12-12-------12-12-12-12-------------------|
Eb|-------------------------------------------------|

   GTR I
eb|-------------------------------------------------|
Bb|-------------------------------------------------|
Gb|--------------------------------------4----/5----|
Db|--3--3--3--3--------3-----------------x-----x----|
Ab|--3--3--3--3--------3-----------------2----/3----|
Eb|--1--1--1--1--------1----------------------------|
  |
  |GTR II
eb|-------------------------------------------------|
Bb|-------------------------------------------------|
Gb|-10-10-10-10-------10----------------------------|
Db|--x--x--x--x--------x----------------------------|
Ab|--8--8--8--8--------8----------------------------|
Eb|-------------------------------------------------|

   GTR I
eb|-------------------------------------------------|
Bb|-------------------------------------------------|
Gb|-------------------------------------------------|
Db|--5--5--5--5--------5--5--5--5-------------------|
Ab|--5--5--5--5--------5--5--5--5-------------------|
Ab|--3--3--3--3--------3--3--3--3-------------------|
  |
  |GTR II
eb|-------------------------------------------------|
Bb|-------------------------------------------------|
Gb|--9--9--9--9--------9--9--9--9-------------------|
Db|--x--x--x--x--------x--x--x--x-------------------|
Ab|--7--7--7--7--------7--7--7--7-------------------|
Eb|-------------------------------------------------|

   GTR I
eb|-------------------------------------------------|
Bb|-------------------------------------------------|
Gb|-------------------------------------------------|
Db|--3--3--3--3--------3----------------------------|
Ab|--3--3--3--3--------3-----------------2h-3p-2p-0-|
Eb|--1--1--1--1--------1----------------------------|
  |
  |GTR II
eb|-------------------------------------------------|
Bb|-------------------------------------------------|
Gb|--9--9--9--9--------9----------------------------|
Db|--x--x--x--x--------x----------------------------|
Ab|--7--7--7--7--------7----------------------------|
Eb|-------------------------------------------------|

Breakdown

   GTR I
eb|-------------------------------------------------|
Bb|-------------------------------------------------|
Gb|-------------------------------------------------|
Db|-------------------------------------------------|
Ab|--7--7--7--7--7--7--7--7--7--7--7--7--7--7--7--7-|
Eb|--5--5--5--5--5--5--5--5--5--5--5--5--5--5--5--5-|
     .  .  .  .  .  .  .  .  .  .  .  .  .  .  .  .

   GTR I
eb|-------------------------------------------------|
Bb|-------------------------------------------------|
Gb|-------------------------------------------------|
Db|-------------------------------------------------|
Ab|--3--3--3--3--3--3--3--3--3--3--3--3--3--3--3--3-|
Eb|--1--1--1--1--1--1--1--1--1--1--1--1--1--1--1--1-|
  |  .  .  .  .  .  .  .  .  .  .  .  .  .  .  .  .
  |GTR II
eb|-------------------------------------------------|
Bb|-------------------------------------------------|
Gb|--------------------------------------4----/5----|
Db|--------------------------------------x-----x----|
Ab|--------------------------------------2----/3----|
Eb|-------------------------------------------------|

   GTR I
eb|-------------------------------------------------|
Bb|-------------------------------------------------|
Gb|-------------------------------------------------|
Db|-------------------------------------------------|
Ab|--5--5--5--5--5--5--5--5--5--5--5--5--5--5--5--5-|
Eb|--3--3--3--3--3--3--3--3--3--3--3--3--3--3--3--3-|
     .  .  .  .  .  .  .  .  .  .  .  .  .  .  .  .

   GTR I
eb|-------------------------------------------------|
Bb|-------------------------------------------------|
Gb|-------------------------------------------------|
Db|-------------------------------------------------|
Ab|--3--3--3--3--3--3--3--3--3--3--3--3--3--3--3--3-|
Eb|--1--1--1--1--1--1--1--1--1--1--1--1--1--1--1--1-|
  |  .  .  .  .  .  .  .  .  .  .  .  .  .  .  .  .
  |GTR II
eb|-------------------------------------------------|
Bb|-------------------------------------------------|
Gb|-------------------------------------------------|
Db|-------------------------------------------------|
Ab|--------------------------------------2h-3p-2p-0-|
Eb|-------------------------------------------------|

   GTR I
eb|-------------------------------------------------|
Bb|-------------------------------------------------|
Gb|-------------------------------------------------|
Db|-------------------------------------------------|
Ab|--7--7--7--7--7--7--7--7--7--7--7--7--7--7--7--7-|
Eb|--5--5--5--5--5--5--5--5--5--5--5--5--5--5--5--5-|
  |  .  .  .  .  .  .  .  .  .  .  .  .  .  .  .  .
  |GTR II
eb|-------------------------------------------------|
Bb|-------------------------------------------------|
Gb|-14-14-14-14-14-14-14-14-14-14-14-14-14-14-14-14-|
Db|--x--x--x--x--x--x--x--x--x--x--x--x--x--x--x--x-|
Ab|-12-12-12-12-12-12-12-12-12-12-12-12-12-12-12-12-|
Eb|-------------------------------------------------|

   GTR I
eb|-------------------------------------------------|
Bb|-------------------------------------------------|
Gb|-------------------------------------------------|
Db|-------------------------------------------------|
Ab|--3--3--3--3--3--3--3--3--3--3--3--3--3--3--3--3-|
Eb|--1--1--1--1--1--1--1--1--1--1--1--1--1--1--1--1-|
  |  .  .  .  .  .  .  .  .  .  .  .  .  .  .  .  .
  |GTR II
eb|-------------------------------------------------|
Bb|-------------------------------------------------|
Gb|-10-10-10-10-10-10-10-10-10-10-10-10-10-10-10-10-|
Db|--x--x--x--x--x--x--x--x--x--x--x--x--x--x--x--x-|
Ab|--8--8--8--8--8--8--8--8--8--8--8--8--8--8--8--8-|
Eb|-------------------------------------------------|

   GTR I
eb|-------------------------------------------------|
Bb|-------------------------------------------------|
Gb|-------------------------------------------------|
Db|-------------------------------------------------|
Ab|--5--5--5--5--5--5--5--5--5--5--5--5--5--5--5--5-|
Eb|--3--3--3--3--3--3--3--3--3--3--3--3--3--3--3--3-|
  |  .  .  .  .  .  .  .  .  .  .  .  .  .  .  .  .
  |GTR II
eb|-------------------------------------------------|
Bb|-------------------------------------------------|
Gb|--9--9--9--9--9--9--9--9--9--9--9--9--9--9--9--9-|
Db|--x--x--x--x--x--x--x--x--x--x--x--x--x--x--x--x-|
Ab|--7--7--7--7--7--7--7--7--7--7--7--7--7--7--7--7-|
Eb|-------------------------------------------------|

   GTR I
eb|-------------------------------------------------|
Bb|-------------------------------------------------|
Gb|-------------------------------------------------|
Db|-------------------------------------------------|
Ab|--3--3--3--3--3--3--3--3--3--3--3--3--3--3--3--3-|
Eb|--1--1--1--1--1--1--1--1--1--1--1--1--1--1--1--1-|
  |  .  .  .  .  .  .  .  .  .  .  .  .  .  .  .  .
  |GTR II
eb|-------------------------------------------------|
Bb|-------------------------------------------------|
Gb|--7--7--7--7--7--7--7--7--5--5--5--5--5--5--5--5-|
Db|--x--x--x--x--x--x--x--x--x--x--x--x--x--x--x--x-|
Ab|--5--5--5--5--5--5--5--5--3--3--3--3--3--3--3--3-|
Eb|-------------------------------------------------|

Pre Chorus 3

   GTR I
eb|-------------------------------------------------|
Bb|-------------------------------------------------|
Gb|-------------------------------------------------|
Db|--2--2--2--2--2--2--2--2--2--2--2--2--2--2--2--2-|
Ab|--2--2--2--2--2--2--2--2--2--2--2--2--2--2--2--2-|
Eb|--0--0--0--0--0--0--0--0--0--0--0--0--0--0--0--0-|
  |
  |GTR II
eb|-------------------------------------------------|
Bb|-------------------------------------------------|
Gb|--9--9--9--9--9--9--9--9--9--9--9--9--9--9--9--9-|
Db|--x--x--x--x--x--x--x--x--x--x--x--x--x--x--x--x-|
Ab|--7--7--7--7--7--7--7--7--7--7--7--7--7--7--7--7-|
Eb|-------------------------------------------------|

   GTR I
eb|-------------------------------------------------|
Bb|-------------------------------------------------|
Gb|-------------------------------------------------|
Db|--2--2--2--2--2--2--2--2--2----------------------|
Ab|--2--2--2--2--2--2--2--2--2----------------------|
Eb|--0--0--0--0--0--0--0--0--0----------------------|
  |
  |GTR II
eb|-------------------------------------------------|
Bb|-------------------------------------------------|
Gb|-10-10-10-10-10-10-10-10-12----------------------|
Db|--x--x--x--x--x--x--x--x--x----------------------|
Ab|--8--8--8--8--8--8--8--8-10----------------------|
Eb|-------------------------------------------------|

Chorus

   GTR I
eb|-------------------------------------------------|
Bb|-------------------------------------------------|
Gb|-------------------------------------------------|
Db|--7-----7--7--7--7--7--7--7--7--7--7--7--7--7--7-|
Ab|--7-----7--7--7--7--7--7--7--7--7--7--7--7--7--7-|
Eb|--5-----5--5--5--5--5--5--5--5--5--5--5--5--5--5-|
  |
  |GTR II
eb|-------------------------------------------------|
Bb|-------------------------------------------------|
Gb|-17----17-17-16-16-16-16-14-14-14-14-12-12-12-12-|
Db|--x-----x--x--x--x--x--x--x--x--x--x--x--x--x--x-|
Ab|-15----15-15-14-14-14-14-12-12-12-12-10-10-10-10-|
Eb|-------------------------------------------------|

   GTR I
eb|-------------------------------------------------|
Bb|-------------------------------------------------|
Gb|-10----10-10-10-10-10-10-10-10-10-10-10-10-10-10-|
Db|-10----10-10-10-10-10-10-10-10-10-10-10-10-10-10-|
Ab|--8-----8--8--8--8--8--8--8--8--8--8--8--8--8--8-|
Eb|-------------------------------------------------|
  |
  |GTR II
eb|-------------------------------------------------|
Bb|-------------------------------------------------|
Gb|-17----17-17-16-16-16-16-14-14-14-14-12-12-12-12-|
Db|--x-----x--x--x--x--x--x--x--x--x--x--x--x--x--x-|
Ab|-15----15-15-14-14-14-14-12-12-12-12-10-10-10-10-|
Eb|-------------------------------------------------|

   GTR I
eb|-------------------------------------------------|
Bb|-------------------------------------------------|
Gb|-------------------------------------------------|
Db|-10----10-10-10-10-10-10-10-10-10-10-10-10-10-10-|
Ab|-10----10-10-10-10-10-10-10-10-10-10-10-10-10-10-|
Eb|--8-----8--8--8--8--8--8--8--8--8--8--8--8--8--8-|
  |
  |GTR II
eb|-------------------------------------------------|
Bb|-------------------------------------------------|
Gb|-17----17-16/17-17/19-19\17-17\16-16\14-14/16----|
Db|--x-----x--x--x--x--x--x--x--x--x--x--x--x--x----|
Ab|-15----15-14/15-15/17-17\15-15\14-14\12-12/14----|
Eb|-------------------------------------------------|

   GTR I
eb|-------------------------------------------------|
Bb|-------------------------------------------------|
Gb|-------------------------------------------------|
Db|--5-----5--5--5--5--5--5--5--5--5--5--5--5--5--5-|
Ab|--5-----5--5--5--5--5--5--5--5--5--5--5--5--5--5-|
Eb|--3-----3--3--3--3--3--3--3--3--3--3--3--3--3--3-|
  |
  |GTR II
eb|-------------------------------------------------|
Bb|-------------------------------------------------|
Gb|-12----12-12-12-12-12-12-12-12-12-12-12-12-12-12-|
Db|--x-----x--x--x--x--x--x--x--x--x--x--x--x--x--x-|
Ab|-10----10-10-10-10-10-10-10-10-10-10-10-10-10-10-|
Eb|-------------------------------------------------|

   GTR I
eb|-------------------------------------------------|
Bb|-------------------------------------------------|
Gb|-------------------------------------------------|
Db|--7-----7--7--7--7--7--7--7--7--7--7--7--7--7--7-|
Ab|--7-----7--7--7--7--7--7--7--7--7--7--7--7--7--7-|
Eb|--5-----5--5--5--5--5--5--5--5--5--5--5--5--5--5-|
  |
  |GTR II
eb|-------------------------------------------------|
Bb|-------------------------------------------------|
Gb|-17----17-17-16-16-16-16-14-14-14-14-12-12-12-12-|
Db|--x-----x--x--x--x--x--x--x--x--x--x--x--x--x--x-|
Ab|-15----15-15-14-14-14-14-12-12-12-12-10-10-10-10-|
Eb|-------------------------------------------------|

   GTR I
eb|-------------------------------------------------|
Bb|-------------------------------------------------|
Gb|-10----10-10-10-10-10-10-10-10-10-10-10-10-10-10-|
Db|-10----10-10-10-10-10-10-10-10-10-10-10-10-10-10-|
Ab|--8-----8--8--8--8--8--8--8--8--8--8--8--8--8--8-|
Eb|-------------------------------------------------|
  |
  |GTR II
eb|-------------------------------------------------|
Bb|-------------------------------------------------|
Gb|-17----17-17-16-16-16-16-14-14-14-14-12-12-12-12-|
Db|--x-----x--x--x--x--x--x--x--x--x--x--x--x--x--x-|
Ab|-15----15-15-14-14-14-14-12-12-12-12-10-10-10-10-|
Eb|-------------------------------------------------|

   GTR I
eb|-------------------------------------------------|
Bb|-------------------------------------------------|
Gb|-------------------------------------------------|
Db|-10----10-10-10-10-10-10-10-10-10-10-10-10-10-10-|
Ab|-10----10-10-10-10-10-10-10-10-10-10-10-10-10-10-|
Eb|--8-----8--8--8--8--8--8--8--8--8--8--8--8--8--8-|
  |
  |GTR II
eb|-------------------------------------------------|
Bb|-------------------------------------------------|
Gb|-17----17-16/17-17/19-19\17-17\16-16\14-14/16----|
Db|--x-----x--x--x--x--x--x--x--x--x--x--x--x--x----|
Ab|-15----15-14/15-15/17-17\15-15\14-14\12-12/14----|
Eb|-------------------------------------------------|

   GTR I
eb|-------------------------------------------------|
Bb|-------------------------------------------------|
Gb|-------------------------------------------------|
Db|--5-----5--5--5--5--5--5--5--5--5--5--5--5--5--5-|
Ab|--5-----5--5--5--5--5--5--5--5--5--5--5--5--5--5-|
Eb|--3-----3--3--3--3--3--3--3--3--3--3--3--3--3--3-|
  |
  |GTR II
eb|-------------------------------------------------|
Bb|-------------------------------------------------|
Gb|-12----12-12-12-12-12-12-12-12-12-12-12-12-12-12-|
Db|--x-----x--x--x--x--x--x--x--x--x--x--x--x--x--x-|
Ab|-10----10-10-10-10-10-10-10-10-10-10-10-10-10-10-|
Eb|-------------------------------------------------|

Outro

   GTR I
eb|-------------------------------------------------|
Bb|-------------------------------------------------|
Gb|-------------------------------------------------|
Db|--7-----7--7--7--7--7--7--7--7--7--7--7--7--7--7-|
Ab|--7-----7--7--7--7--7--7--7--7--7--7--7--7--7--7-|
Eb|--5-----5--5--5--5--5--5--5--5--5--5--5--5--5--5-|
  |
  |GTR II
eb|-------------------------------------------------|
Bb|--------------------8-----------------------8----|
Gb|-------------------------------------------------|
Db|--------7-----9h10--------------7-----9h10-------|
Ab|-----0-----------------0--0--0-----------------0-|
Eb|-------------------------------------------------|
        .                 .  .  .                 .

   GTR I
eb|-------------------------------------------------|
Bb|-------------------------------------------------|
Gb|-10----10-10-10-10-10-10-10-10-10-10-10-10-10-10-|
Db|-10----10-10-10-10-10-10-10-10-10-10-10-10-10-10-|
Ab|--8-----8--8--8--8--8--8--8--8--8--8--8--8--8--8-|
Eb|-------------------------------------------------|
  |
  |GTR II
eb|-------------------------------------------------|
Bb|--------------------8-----------------------8----|
Gb|-------------------------------------------------|
Db|--------7-----9h10--------------7-----9h10-------|
Ab|--0--0-----------------0--0--0-----------------0-|
Eb|-------------------------------------------------|
     .  .                 .  .  .                 .

   GTR I
eb|-------------------------------------------------|
Bb|-------------------------------------------------|
Gb|-------------------------------------------------|
Db|-10----10-10-10-10-10-10-10-10-10-10-10-10-10-10-|
Ab|-10----10-10-10-10-10-10-10-10-10-10-10-10-10-10-|
Eb|--8-----8--8--8--8--8--8--8--8--8--8--8--8--8--8-|
  |
  |GTR II
eb|-------------------------------------------------|
Bb|--------------------8-----------------------8----|
Gb|-------------------------------------------------|
Db|--------7-----9h10--------------7-----9h10-------|
Ab|--0--0-----------------0--0--0-----------------0-|
Eb|-------------------------------------------------|
     .  .                 .  .  .                 .

   GTR I
eb|-------------------------------------------------|
Bb|-------------------------------------------------|
Gb|-------------------------------------------------|
Db|--5-----5--5--5--5--5--5--5--5--5--5--5--5--5--5-|
Ab|--5-----5--5--5--5--5--5--5--5--5--5--5--5--5--5-|
Eb|--3-----3--3--3--3--3--3--3--3--3--3--3--3--3--3-|
  |
  |GTR II
eb|-------------------------------------------------|
Bb|--------------------8-----------------------8----|
Gb|-------------------------------------------------|
Db|--------7-----9h10--------------7-----9h10-------|
Ab|--0--0-----------------0--0--0-----------------0-|
Eb|-------------------------------------------------|
     .  .                 .  .  .                 .

   GTR I
eb|-------------------------------------------------|
Bb|-------------------------------------------------|
Gb|-------------------------------------------------|
Db|--7-----7--7--7--7--7--7--7--7--7--7--7--7--7--7-|
Ab|--7-----7--7--7--7--7--7--7--7--7--7--7--7--7--7-|
Eb|--5-----5--5--5--5--5--5--5--5--5--5--5--5--5--5-|
  |
  |GTR II
eb|-------------------------------------------------|
Bb|--------------------8-----------------------8----|
Gb|-------------------------------------------------|
Db|--------7-----9h10--------------7-----9h10-------|
Ab|-----0-----------------0--0--0-----------------0-|
Eb|-------------------------------------------------|
        .                 .  .  .                 .

   GTR I
eb|-------------------------------------------------|
Bb|-------------------------------------------------|
Gb|-10----10-10-10-10-10-10-10-10-10-10-10-10-10-10-|
Db|-10----10-10-10-10-10-10-10-10-10-10-10-10-10-10-|
Ab|--8-----8--8--8--8--8--8--8--8--8--8--8--8--8--8-|
Eb|-------------------------------------------------|
  |
  |GTR II
eb|-------------------------------------------------|
Bb|--------------------8-----------------------8----|
Gb|-------------------------------------------------|
Db|--------7-----9h10--------------7-----9h10-------|
Ab|--0--0-----------------0--0--0-----------------0-|
Eb|-------------------------------------------------|
     .  .                 .  .  .                 .

   GTR I
eb|-------------------------------------------------|
Bb|-------------------------------------------------|
Gb|-------------------------------------------------|
Db|-10----10-10-10-10-10-10-10-10-10-10-10-10-10-10-|
Ab|-10----10-10-10-10-10-10-10-10-10-10-10-10-10-10-|
Eb|--8-----8--8--8--8--8--8--8--8--8--8--8--8--8--8-|
  |
  |GTR II
eb|-------------------------------------------------|
Bb|--------------------8-----------------------8----|
Gb|-------------------------------------------------|
Db|--------7-----9h10--------------7-----9h10-------|
Ab|--0--0-----------------0--0--0-----------------0-|
Eb|-------------------------------------------------|
     .  .                 .  .  .                 .

   GTR I
eb|-------------------------------------------------|
Bb|-------------------------------------------------|
Gb|-------------------------------------------------|
Db|--5-----5--5--5--5--5--5--5--5--5--5--5--5--5--5-|
Ab|--5-----5--5--5--5--5--5--5--5--5--5--5--5--5--5-|
Eb|--3-----3--3--3--3--3--3--3--3--3--3--3--3--3--3-|
  |
  |GTR II
eb|-------------------------------------------------|
Bb|--------------------8-----------------------8----|
Gb|-------------------------------------------------|
Db|--------7-----9h10--------------7-----9h10-------|
Ab|--0--0-----------------0--0--0-------------------|
Eb|-------------------------------------------------|
     .  .                 .  .  .                  

   GTR I,II
eb|-------------------------------------------------|
Bb|-------------------------------------------------|
Gb|-------------------------------------------------|
Db|--7----------------------------------------------|
Ab|--7----------------------------------------------|
Eb|--5----------------------------------------------|


| b  bend
| r  release bend
|trp triplet
|TRM tremelo pick
|PH. pinch harmonic
|fbk feedback
| .  palm-mute
| /  slide up
| \  slide down
| h  hammer-on
| p  pull-off
| ~  vibrato
| +  harmonic
| x  Mute note
===============================================================================
Tap to rate this tab
 
# A B C D E F G H I J K L M N O P Q R S T U V W X Y Z