Song name
# A B C D E F G H I J K L M N O P Q R S T U V W X Y Z

Rise Against - For What Its Worth tab

Song..........For What It's Worth
Artist........Rise Aganist (Made famous by Buffalo Springfield)
Album.........None
Tabbed by.....Caboose911

(*?*) - Harmonic
X     - Smack guitar quietly / Mute note

Guitar One - Repeats this throughout the song:
e\---------(*12*)-------------------(*7*)-----------------/
B\--------------------------------------------------------/
G\--------------------------------------------------------/
D\--------------------------------------------------------/
A\--------------------------------------------------------/
E\--------------------------------------------------------/

Second Guitar - Plays in Verse:
e\--------------------------------------/
B\--------------------------------------/
G\--------------------------------------/  <-- Repeat as necessary.
D\--------------------------------------/
A\--------------7---X------------7---X--/
E\------0---X------------5---X----------/

Third Guitar - Plays in Verse:
e\--------------------------------------------/
B\----------------------------2---------------/
G\-----1----------------------2---------------/
D\-----2----------------------2---------------/
A\-----2----------------------0---------------/
E\-----0--------------------------------------/
    ^^Listen for the strum pattern

Second and Third guitar play this during the chorus:

I think its time we stop clidren whats that sound everybody look whats
e\------------------------------2-------------------/
B\------------------------------3----------------2--/
G\------------------1-----------2----------------2--/
D\------------------2-----------0----------------2--/
A\------------------2----------------------------0--/
E\------------------0-------------------------------/

There is a background riff that is repeated around the end but I can't quite figure it 
at the moment, so I'll get to it later.
Tap to rate this tab
 
# A B C D E F G H I J K L M N O P Q R S T U V W X Y Z