Song name
# A B C D E F G H I J K L M N O P Q R S T U V W X Y Z

Rise Against - Blood To Bleed tab

Blood To Bleed
Rise Against
Siren Song of the Counter Culture (2004)

Blood To Bleed:  written by Tim McIlrath, Chris Chasse, Joe Principe, and 
Brandon Barnes

GTR I - Standard Tuning "Tim McIlrath" (e,B,G,D,A,E)
GTR II - Standard Tuning "Chris Chasse" (e,B,G,D,A,E)

Intro

  GTR I,II
e|----------|----------|----------|----------|
B|----------|----------|----------|----------|
G|----------|----------|----------|----------|
D|----------|----------|----------|----------|
A|----------|----------|----------|----------|
E|----------|----------|----------|----------|

Verse

  GTR I,II
e|-------------------------------------|-------------------------------------|
B|-------------------------------------|-------------------------------------|
G|--6----------------------------------|--6----------------------------------|
D|--6--6--6--6--6--6--6--6--6--4--4--4-|--6--6--6--6--6--6--6--6--6--2--2--2-|
A|--4--4--4--4--4--4--4--4--4--2--2--2-|--4--4--4--4--4--4--4--4--4--0--0--0-|
E|-------------------------------------|-------------------------------------|
       .  .  .  .  .  .  .  .  .  .  .       .  .  .  .  .  .  .  .  .  .  .

  GTR I,II
e|-------------------------------------|-------------------------------------|
B|-------------------------------------|-------------------------------------|
G|--6----------------------------------|--------------------6--6--6--6--6--6-|
D|--6--6--6--6--6--6--6--6--6--4--4--4-|--2--2--2--4--4--4--6--6--6--6--6--6-|
A|--4--4--4--4--4--4--4--4--4--2--2--2-|--2--2--2--4--4--4--4--4--4--4--4--4-|
E|-------------------------------------|--0--0--0--2--2--2-------------------|
       .  .  .  .  .  .  .  .  .  .  .                                      

  GTR I,II
e|-------------------------------------|-------------------------------------|
B|-------------------------------------|-------------------------------------|
G|--6----------------------------------|--6----------------------------------|
D|--6--6--6--6--6--6--6--6--6--4--4--4-|--6--6--6--6--6--6--6--6--6--2--2--2-|
A|--4--4--4--4--4--4--4--4--4--2--2--2-|--4--4--4--4--4--4--4--4--4--0--0--0-|
E|-------------------------------------|-------------------------------------|
       .  .  .  .  .  .  .  .  .  .  .       .  .  .  .  .  .  .  .  .  .  .

  GTR I,II
e|-------------------------------------|-------------------------------------|
B|-------------------------------------|-------------------------------------|
G|--6----------------------------------|--------------------6--6--6--6--6--6-|
D|--6--6--6--6--6--6--6--6--6--4--4--4-|--2--2--2--4--4--4--6--6--6--6--6--6-|
A|--4--4--4--4--4--4--4--4--4--2--2--2-|--2--2--2--4--4--4--4--4--4--4--4--4-|
E|-------------------------------------|--0--0--0--2--2--2-------------------|
       .  .  .  .  .  .  .  .  .  .  .                                      

Chorus

  GTR I
e|-------------------------------------|-------------------------------------|
B|-------------------------------------|-------------------------------------|
G|--2--2--2--2--2--2-------------------|--4--4--4--4--4--4--6--6--6--6--6--6-|
D|--2--2--2--2--2--2--2--2--2--2--2--2-|--4--4--4--4--4--4--6--6--6--6--6--6-|
A|--0--0--0--0--0--0--2--2--2--2--2--2-|--2--2--2--2--2--2--4--4--4--4--4--4-|
E|--------------------0--0--0--0--0--0-|-------------------------------------|
 |
 |GTR II
e|-------------------------------------|-------------------------------------|
B|-------------------------------------|-------------------------------------|
G|--9--------------8--9--------------9-|-11-------13-------11--------9-------|
D|--x--------------x--x--------------x-|--x--------x--------x--------x-------|
A|--7--------------6--7--------------7-|--9-------11--------9--------7-------|
E|-------------------------------------|-------------------------------------|

  GTR I
e|-------------------------------------|-------------------------------------|
B|-------------------------------------|-------------------------------------|
G|--2--2--2--2--2--2-------------------|--4--4--4--4--4--4--6--6--6--4--4--4-|
D|--2--2--2--2--2--2--2--2--2--2--2--2-|--4--4--4--4--4--4--6--6--6--4--4--4-|
A|--0--0--0--0--0--0--2--2--2--2--2--2-|--2--2--2--2--2--2--4--4--4--2--2--2-|
E|--------------------0--0--0--0--0--0-|-------------------------------------|
 |
 |GTR II
e|-------------------------------------|-------------------------------------|
B|-------------------------------------|-------------------------------------|
G|--9--------------8--9--------------9-|--9-------11--------9----------------|
D|--x--------------x--x--------------x-|--x--------x--------x----------------|
A|--7--------------6--7--------------7-|--7--------9--------7----------------|
E|-------------------------------------|-------------------------------------|

  GTR I
e|-------------------------------------|-------------------------------------|
B|-------------------------------------|-------------------------------------|
G|--2--2--2--2--2--2-------------------|--4--4--4--4--4--4--6--6--6--6--6--6-|
D|--2--2--2--2--2--2--2--2--2--2--2--2-|--4--4--4--4--4--4--6--6--6--6--6--6-|
A|--0--0--0--0--0--0--2--2--2--2--2--2-|--2--2--2--2--2--2--4--4--4--4--4--4-|
E|--------------------0--0--0--0--0--0-|-------------------------------------|
 |
 |GTR II
e|-------------------------------------|-------------------------------------|
B|-------------------------------------|-------------------------------------|
G|--9--------------8--9--------------9-|-11-------13-------11--------9-------|
D|--x--------------x--x--------------x-|--x--------x--------x--------x-------|
A|--7--------------6--7--------------7-|--9-------11--------9--------7-------|
E|-------------------------------------|-------------------------------------|

  GTR I
e|-------------------------------------|-------------------------------------|
B|-------------------------------------|-------------------------------------|
G|--2--2--2--2--2--2--2--2--2--2--2--2-|--4--4--4--4--4--4--4--4--4--4--4--4-|
D|--2--2--2--2--2--2--2--2--2--2--2--2-|--4--4--4--4--4--4--4--4--4--4--4--4-|
A|--0--0--0--0--0--0--0--0--0--0--0--0-|--2--2--2--2--2--2--2--2--2--2--2--2-|
E|-------------------------------------|-------------------------------------|
 |
 |GTR II
e|-------------------------------------|-------------------------------------|
B|-------------------------------------|-------------------------------------|
G|--9--------------------------------9-|-13-------------14-11----------------|
D|--x--------------------------------x-|--x--------------x--x----------------|
A|--7--------------------------------7-|-11-------------12--9----------------|
E|-------------------------------------|-------------------------------------|

Verse
Chorus

Guitar Solo

  GTR I
e|-------------------------------------|-------------------------------------|
B|-------------------------------------|----------------14-------------------|
G|/13-13-13-13-13-13----------11-------|/16-16-16-16-14----13\---------------|
D|-------------------11-13-14----14-13-|-------------------------------------|
A|-------------------------------------|-------------------------------------|
E|-------------------------------------|-------------------------------------|
 |
 |GTR II
e|-------------------------------------|-------------------------------------|
B|-------------------------------------|-------------------------------------|
G|--6--6--6--6--6--6--6--6--6--6--6--6-|--2--2--2--2--2--2--2--2--2--2--2--2-|
D|--6--6--6--6--6--6--6--6--6--6--6--6-|--2--2--2--2--2--2--2--2--2--2--2--2-|
A|--4--4--4--4--4--4--4--4--4--4--4--4-|--0--0--0--0--0--0--0--0--0--0--0--0-|
E|-------------------------------------|-------------------------------------|

  GTR I
e|-------------------------------------|-------------------------------------|
B|-------------------------------------|-------------------------------------|
G|----------------------------11-------|-------------11----------------------|
D|/11------/13------/14----------14-13-|-14----14-14----14-13----------------|
A|-------------------------------------|-------------------------------------|
E|-------------------------------------|-------------------------------------|
 |
 |GTR II
e|-------------------------------------|-------------------------------------|
B|-------------------------------------|-------------------------------------|
G|-------------------------------------|--4--4--4--4--4--4--4--4--4--4--4--4-|
D|--2--2--2--2--2--2--2--2--2--2--2--2-|--4--4--4--4--4--4--4--4--4--4--4--4-|
A|--2--2--2--2--2--2--2--2--2--2--2--2-|--2--2--2--2--2--2--2--2--2--2--2--2-|
E|--0--0--0--0--0--0--0--0--0--0--0--0-|-------------------------------------|

  GTR I
e|-------------------------------------|-------------------------------------|
B|-------------------------------------|-17-17-17-17-14-17-16~---17p16-12~---|
G|-13-13-13-13-13-13-14-16-16-16-16-16-|-------------------------------------|
D|-------------------------------------|-------------------------------------|
A|-------------------------------------|-------------------------------------|
E|-------------------------------------|-------------------------------------|
 |
 |GTR II
e|-------------------------------------|-------------------------------------|
B|-------------------------------------|-------------------------------------|
G|--6--6--6--6--6--6--6--6--6--6--6--6-|--2--2--2--2--2--2--2--2--2--2--2--2-|
D|--6--6--6--6--6--6--6--6--6--6--6--6-|--2--2--2--2--2--2--2--2--2--2--2--2-|
A|--4--4--4--4--4--4--4--4--4--4--4--4-|--0--0--0--0--0--0--0--0--0--0--0--0-|
E|-------------------------------------|-------------------------------------|

  GTR I
e|-------------------------------------|-------------------------------------|
B|/14----------12----------------------|-------------------------------------|
G|----------------14-13----------14-13-|-------------------------------------|
D|-------------------------------------|-14~---------------13-------13-14-13-|
A|-------------------------------------|-------------------------------------|
E|-------------------------------------|-------------------------------------|
 |
 |GTR II
e|-------------------------------------|-------------------------------------|
B|-------------------------------------|-------------------------------------|
G|-------------------------------------|--4--4--4--4--4--4--4--4--4--4--4--4-|
D|--2--2--2--2--2--2--2--2--2--2--2--2-|--4--4--4--4--4--4--4--4--4--4--4--4-|
A|--2--2--2--2--2--2--2--2--2--2--2--2-|--2--2--2--2--2--2--2--2--2--2--2--2-|
E|--0--0--0--0--0--0--0--0--0--0--0--0-|-------------------------------------|

Interlude

  GTR I
e|-------------------------------------|-------------------------------------|
B|-------------------------------------|-------------------------------------|
G|-------------------------------------|-------------------------------------|
D|-11~---------------------------------|----------------------------13-14-13-|
A|-------------------------------------|-------------------------------------|
E|-------------------------------------|-------------------------------------|
 |
 |GTR II
e|-------------------------------------|-------------------------------------|
B|-------------------------------------|-------------------------------------|
G|--6--6--6--6--6--6--6--6--6--6--6--6-|--2--2--2--2--2--2--2--2--2--2--2--2-|
D|--6--6--6--6--6--6--6--6--6--6--6--6-|--2--2--2--2--2--2--2--2--2--2--2--2-|
A|--4--4--4--4--4--4--4--4--4--4--4--4-|--0--0--0--0--0--0--0--0--0--0--0--0-|
E|-------------------------------------|-------------------------------------|

  GTR I
e|-------------------------------------|-------------------------------------|
B|-------------------------------------|-------------------------------------|
G|-------------------------------------|-------------------------------------|
D|-11~---------------------------------|-----------------------------9-11--9-|
A|-------------------------------------|-------------------------------------|
E|-------------------------------------|-------------------------------------|
 |
 |GTR II
e|-------------------------------------|-------------------------------------|
B|-------------------------------------|-------------------------------------|
G|-------------------------------------|-------------------------------------|
D|--2--2--2--2--2--2--2--2--2--2--2--2-|--6--6--6--6--6--6--6--6--6--6--6--6-|
A|--2--2--2--2--2--2--2--2--2--2--2--2-|--6--6--6--6--6--6--6--6--6--6--6--6-|
E|--0--0--0--0--0--0--0--0--0--0--0--0-|--4--4--4--4--4--4--4--4--4--4--4--4-|

  GTR I
e|-------------------------------------|-------------------------------------|
B|-------------------------------------|-------------------------------------|
G|-------------------------------------|-------------------------------------|
D|-11~---------------------------------|-----------------------------9-11--9-|
A|-------------------------------------|-------------------------------------|
E|-------------------------------------|-------------------------------------|
 |
 |GTR II
e|-------------------------------------|-------------------------------------|
B|-------------------------------------|-------------------------------------|
G|--6--6--6--6--6--6--6--6--6--6--6--6-|--2--2--2--2--2--2--2--2--2--2--2--2-|
D|--6--6--6--6--6--6--6--6--6--6--6--6-|--2--2--2--2--2--2--2--2--2--2--2--2-|
A|--4--4--4--4--4--4--4--4--4--4--4--4-|--0--0--0--0--0--0--0--0--0--0--0--0-|
E|-------------------------------------|-------------------------------------|

  GTR I
e|-------------------------------------|-------------------------------------|
B|-------------------------------------|-------------------------------------|
G|-------------------------------------|-------------------------------------|
D|-11~---------------------------------|-14----------------13----------------|
A|-------------------------------------|-------------------------------------|
E|-------------------------------------|-------------------------------------|
 |
 |GTR II
e|-------------------------------------|-------------------------------------|
B|-------------------------------------|-------------------------------------|
G|-------------------------------------|-------------------------------------|
D|--2--2--2--2--2--2--2--2--2--2--2--2-|--6--6--6--6--6--6--6--6--6--6--6--6-|
A|--2--2--2--2--2--2--2--2--2--2--2--2-|--6--6--6--6--6--6--6--6--6--6--6--6-|
E|--0--0--0--0--0--0--0--0--0--0--0--0-|--4--4--4--4--4--4--4--4--4--4--4--4-|

Guitar Break

  GTR I
e|----------|----------|----------|----------|
B|----------|----------|----------|----------|
G|----------|----------|----------|----------|
D|-11~------|----------|----------|----------|
A|----------|----------|----------|----------|
E|----------|----------|----------|----------|
 |
 |GTR II
e|----------|----------|----------|----------|
B|----------|----------|----------|----------|
G|--6-------|----------|----------|----------|
D|--6-------|----------|----------|----------|
A|--4-------|----------|----------|----------|
E|----------|----------|----------|----------|

  GTR I,II
e|----------|----------|----------|----------|
B|----------|----------|----------|----------|
G|----------|----------|----------|----------|
D|----------|----------|----------|----------|
A|----------|----------|----------|----------|
E|----------|----------|----------|----------|

Chorus

Outro

  GTR I
e|-------------------------------------|-------------------------------------|
B|-------------------------------------|-------------------------------------|
G|--2--2--2--2--2--2--2--2--2--2--2--2-|--4--4--4--4--4--4--4--4--4--4--4--4-|
D|--2--2--2--2--2--2--2--2--2--2--2--2-|--4--4--4--4--4--4--4--4--4--4--4--4-|
A|--0--0--0--0--0--0--0--0--0--0--0--0-|--2--2--2--2--2--2--2--2--2--2--2--2-|
E|-------------------------------------|-------------------------------------|
 |
 |GTR II
e|-------------------------------------|-------------------------------------|
B|-------------------------------------|-------------------------------------|
G|--9--------------------------------9-|-13-------------14-11----------------|
D|--x--------------------------------x-|--x--------------x--x----------------|
A|--7--------------------------------7-|-11-------------12--9----------------|
E|-------------------------------------|-------------------------------------|

  GTR I
e|-------------------------------------|-------------------------------------|
B|-------------------------------------|-------------------------------------|
G|--2--2--2--2--2--2--2--2--2--2--2--2-|--4--4--4--4--4--4--4--4--4--4--4--4-|
D|--2--2--2--2--2--2--2--2--2--2--2--2-|--4--4--4--4--4--4--4--4--4--4--4--4-|
A|--0--0--0--0--0--0--0--0--0--0--0--0-|--2--2--2--2--2--2--2--2--2--2--2--2-|
E|-------------------------------------|-------------------------------------|
 |
 |GTR II
e|-------------------------------------|-------------------------------------|
B|-------------------------------------|-------------------------------------|
G|--9--------------------------------9-|-13-------------14-11----------------|
D|--x--------------------------------x-|--x--------------x--x----------------|
A|--7--------------------------------7-|-11-------------12--9----------------|
E|-------------------------------------|-------------------------------------|

  GTR I
e|-------------------------------------|-------------------------------------|
B|-------------------------------------|-------------------------------------|
G|--2--2--2--2--2--2--2--2--2--2--2--2-|--4--4--4--4--4--4--4--4--4--4--4--4-|
D|--2--2--2--2--2--2--2--2--2--2--2--2-|--4--4--4--4--4--4--4--4--4--4--4--4-|
A|--0--0--0--0--0--0--0--0--0--0--0--0-|--2--2--2--2--2--2--2--2--2--2--2--2-|
E|-------------------------------------|-------------------------------------|
 |
 |GTR II
e|-------------------------------------|-------------------------------------|
B|-------------------------------------|-------------------------------------|
G|--9--------------------------------9-|-13-------------14-11----------------|
D|--x--------------------------------x-|--x--------------x--x----------------|
A|--7--------------------------------7-|-11-------------12--9----------------|
E|-------------------------------------|-------------------------------------|

  GTR I,II
e|-------------------------------------|-------------------------------------|
B|-------------------------------------|-------------------------------------|
G|--6----------------------------------|-------------------------------------|
D|--6----------------------------------|-------------------------------------|
A|--4----------------------------------|-------------------------------------|
E|-------------------------------------|-------------------------------------|


| b  bend
| r  release bend
|trp triplet
|PH. pinch harmonic
|fbk feedback
| .  palm-mute
| /  slide up
| \  slide down
| h  hammer-on
| p  pull-off
| ~  vibrato
|(7) harmonic
| x  Mute note
===============================================================================
Tap to rate this tab
 
# A B C D E F G H I J K L M N O P Q R S T U V W X Y Z