Rise Against - Long Forgotten Sons tab

Rise Against - Long Forgotten Sons
Tabbed by Cameron Dumper

Tuning - Half step down (Eb Ab Db Gb Bb eb)

I tabbed this on my ipod touch so it might look abit crap, but its right.


Intro
Guitar 1
E|--------------------------------------|
B|--------------------------------------|
G|-------10-9-----------10-9------------|
D|--12--------------12------------------|
A|--------------------------------------|
E|--------------------------------------|


Intro part 2

Guitar 1 - Play Twice
E|--------------------------------------|
B|--------------------------------------|
G|--14-x-x-14-x-x-14-x-x-14-------------|
D|--------------------------------------|
A|--12-x-x-12-x-x-12-x-x-12-------------|
E|--------------------------------------|

E|--------------------------------------|
B|--------------------------------------|
G|--17-x-x-17-x-x-17-x-x-17-------------|
D|--------------------------------------|
A|--15-x-x-15-x-x-15-x-x-15-------------|
E|--------------------------------------|

E|--------------------------------------|
B|--------------------------------------|
G|--19-x-x-19-x-x-19-x-x-19-------------|
D|--------------------------------------|
A|--17-x-x-17-x-x-17-x-x-17-------------|
E|--------------------------------------|

Intro Part 2a (Only play 1st time)
E|--------------------------------------|
B|--------------------------------------|
G|--x-x-19-x-x-19-x-x-19-x-x-19---------|
D|--------------------------------------|
A|--x-x-17-x-x-17-x-x-17-x-x-17---------|
E|--------------------------------------|

Intro Part 2b (Play 2nd time)
E|--------------------------------------|
B|--------------------------------------|
G|--12-12-12-10--10--10--7--------------|
D|--------------------------------------|
A|--10-10-10-8---8---8----5-------------|
E|--------------------------------------|


Guitar 2
Play Twice
E|--------------------------------------|
B|--------------------------------------|
G|--7--------10--------5----------------|
D|--7--(x8)--10--(x8)--5--(x16)---------|
A|--5--------8---------3----------------|
E|--------------------------------------|


Verse
Guitar 2 
Play twice, with guitar 1 playing the same the second time.
E|--------------------------------------|
B|--------------------------------------|
G|--7-----5-----5-----3-----7-----------|
D|--7-~---5-~---5-~---3--7--7-----------|
A|--5-----5-----3-----1--7--5-----------|
E|-----------------------5--------------|


Pre Chorus
Guitar 1
Play all notes eight times
E|--------------------------------------|
B|--------------------------------------|
G|--10-----9------10----12--------------|
D|--12-----12-----10----10--------------|
A|--------------------------------------|
E|--------------------------------------|

Guitar 2
Palm muted
E|--------------------------------------|
B|--------------------------------------|
G|---3------------5---------------------|
D|---3--(x16)-----5--(x16)--------------|
A|---1------------3---------------------|
E|--------------------------------------|


Chorus
Guitar 1
Play 4 times
E|--------------------------------------|
B|--------------------------------------|
G|--14-x-x-14-x-x-14-x-x-14-------------|
D|--------------------------------------|
A|--12-x-x-12-x-x-12-x-x-12-------------|
E|--------------------------------------|

E|--------------------------------------|
B|--------------------------------------|
G|--17-x-x-17-x-x-17-x-x-17-------------|
D|--------------------------------------|
A|--15-x-x-15-x-x-15-x-x-15-------------|
E|--------------------------------------|

E|--------------------------------------|
B|--------------------------------------|
G|--19-x-x-19-x-x-19-x-x-19-------------|
D|--------------------------------------|
A|--17-x-x-17-x-x-17-x-x-17-------------|
E|--------------------------------------|

E|--------------------------------------|
B|--------------------------------------|
G|--x-x-19-x-x-19-x-x-19-x-x-19---------|
D|--------------------------------------|
A|--x-x-17-x-x-17-x-x-17-x-x-17---------|
E|--------------------------------------|

Guitar 2
Play 4 times
E|--------------------------------------|
B|--------------------------------------|
G|--7--------10--------5----------------|
D|--7--(x8)--10--(x8)--5--(x16)---------|
A|--5--------8---------3----------------|
E|--------------------------------------|

Post Chorus
Guitar 1
E|--------------------------------------|
B|-----------------13-------------------|
G|-----------9-10--------10-9-~---------|
D|------12------------------------------|
A|--------------------------------------|
E|--------------------------------------|

Verse 2
Guitar 2 plays the same as the first verse but with a pick slide before the first chord. 
1 plays the same.

Repeat pre chorus

Repeat chorus

Bridge
Both guitars
Play twice
E|--------------------------------------|
B|--------------------------------------|
G|---3------------5---------------------|
D|---3--(x16)-----5--(x16)--------------|
A|---1------------3---------------------|
E|--------------------------------------|

Bass interlude

Repeat intro

Repeat chorus
Tap to rate this tab
 
# A B C D E F G H I J K L M N O P Q R S T U V W X Y Z