Song name
# A B C D E F G H I J K L M N O P Q R S T U V W X Y Z

Rise Against - Help Is On The Way tab

Help Is On the Way
by Rise Against
(From the album Endgame 2011)

y0m00m4r@sbcglobal.net
Tabbed by:Brett Atwood

____________________________________________________________________________
| Intro                           __
|                                 X2|
|-----------------------------------|--------------------------------|
|-----------------------------------|--------------------------------|
|-13-13-13--13--13--13--13-15-15-16-|-13-13-13--13--13--11--11-13-13-|
|-X--X--X---X---X---X---X--X--X--X--|-X--X--X---X---X---X---X--X--X--|
|-11-11-11--11--11--11--11-13-13-14-|-11-11-11--11--11--9---9--11-11-|
|-----------------------------------|--------------------------------|
                                   
|                                       (Strum about 2 times per note here)
|---------------------------------------------|-----------------------|
|---------------------------------------------|-----------------------|
|-15-16-16-16--16--16-15-15-15-15-15-15-15-15-|-13\8/11-16-9-8/11-8/9-|
|-X--X--X--X---X---X--X--X--X--X--X--X--X--X--|-X--X-X--X--X-X-X--X-X-|
|-13-14-14-14--14--14-13-13-13-13-13-13-13-13-|-11\6/9--14-7-6/9--6/7-|
|---------------------------------------------|-----------------------|
                               
|                        
|--------------------------------------|
|--------------------------------------|
|-8-8-8-8|-9-9-9|-8--------------------|
|-X-X-X-X|-X-X-X|-X--6~-\\\\\\\\\\\\---|
|-6-6-6-6|-7-7-7|-6--6~-\PickSlide\\---|
|--------|------|----4~-\\\\\\\\\\\\\--|
____________________________________________________________________________
| Verse
|           
|------------------------------------------------------------------------|
|------------------------------------------------------------------------|
|-----------------------------------------9---------------11-------------|
|-6~~-\\\\-6--------------9---------------9---------------11-------------|
|-6~~-\\\\-6--------------9---------------777777777777777-9-9999999999999|
|-4~~-\\\\-44444444444444-777777777777777--------------------------------|
|         PM^^^^^^^^^^^^^PM^^^^^^^^^^^^^^PM^^^^^^^^^^^^^^ PM^^^^^^^^^^^^^|

|
|----------------|-------------------------|-------------------------|
|----------------|-------------------------|-------------------------|
|-999-9-9-9-9-999|111111-11-11-11-11-111111|131313-13-13-13-13-131313|
|-999-9-9-9-9-999|111111-11-11-11-11-111111|131313-13-13-13-13-131313|
|-777-7-7-7-7-777|9-9-9--9--9--9--9--9-9-9-|111111-11-11-11-11-111111|
|----------------|-------------------------|-------------------------|

|
|-------------------------|---------------|-----------------------------|
|-------------------------|---------------|-----------------------------|
|111111-11-11-11-11-111111|999-9-9-9-9-999|-----------------------------|
|111111-11-11-11-11-111111|999-9-9-9-9-999|111111111111111111111111-\\\\|
|9-9-9--9--9--9--9--9-9-9-|777-7-7-7-7-777|111111111111111111111111-\\\\|
|-------------------------|---------------|9-9-9-9-9-9-9-9-9-9-9-9--\\\\|
____________________________________________________________________________
| Chorus 1                    __
|                             X3|
|-------------------------------|-------------------X-------------|
|-------------------------------|-------------------X-------------|
|-----------------99999999999999|-----------------9-X-9999-111111-|
|-666666-99999999-99999999999999|-666666-99999999-9-X-9999-111111-|
|-666666-99999999-77777777777777|-666666-99999999-7-X-7777-9-9-9--|
|-444444-77777777---------------|-444444-77777777---X------9-9-9--|
____________________________________________________________________________
| Verse
|           
|------------------------------------------------------------------------|
|------------------------------------------------------------------------|
|-----------------------------------------9---------------11-------------|
|-6~~-\\\\-6--------------9---------------9---------------11-------------|
|-6~~-\\\\-6--------------9---------------777777777777777-9-9999999999999|
|-4~~-\\\\-44444444444444-777777777777777--------------------------------|
|         PM^^^^^^^^^^^^^PM^^^^^^^^^^^^^^PM^^^^^^^^^^^^^^ PM^^^^^^^^^^^^^|

|
|----------------|-------------------------|-------------------------|
|----------------|-------------------------|-------------------------|
|-999-9-9-9-9-999|111111-11-11-11-11-111111|131313-13-13-13-13-131313|
|-999-9-9-9-9-999|111111-11-11-11-11-111111|131313-13-13-13-13-131313|
|-777-7-7-7-7-777|9-9-9--9--9--9--9--9-9-9-|111111-11-11-11-11-111111|
|----------------|-------------------------|-------------------------|

|
|-------------------------|---------------|-----------------------------|
|-------------------------|---------------|-----------------------------|
|111111-11-11-11-11-111111|999-9-9-9-9-999|-----------------------------|
|111111-11-11-11-11-111111|999-9-9-9-9-999|111111111111111111111111-\\\\|
|9-9-9--9--9--9--9--9-9-9-|777-7-7-7-7-777|111111111111111111111111-\\\\|
|-------------------------|---------------|9-9-9-9-9-9-9-9-9-9-9-9--\\\\|
____________________________________________________________________________
| Chorus 2                    __
|                             X3|
|-------------------------------|----------X--------|
|-------------------------------|----------X--------|
|-----------------99999999999999|----------X-9~-11~-|
|-666666-99999999-99999999999999|-666666-9-X-9~-11~-|
|-666666-99999999-77777777777777|-666666-9-X-7~-9~~-|
|-444444-77777777---------------|-444444-7-X-7~-9~~-|
____________________________________________________________________________
| Bridge                                     __             __
|                                            X3|            X9|
|--------------|--------------|----------------|--------------|
|--------------|--------------|----------------|--------------|
|-8------------|-8------------|9999999999999999|-8----6----4--|
|-6----6----4--|-6----6----4--|9999999999999999|-6-00-4-00-2-0|
|-6-00-4-00-2-0|-6-00-4-00-2-0|7777777777777777|---00---00---0|
|---00---00---0|---00---00---0|7777777777777777|--------------|
|   ^^   ^^   ^    ^^   ^^   ^                     ^^   ^^   ^
                __                 ___
|               X5|                X10|
|-----------------|-------------------|-----------------|----------------|
|-121212-111111-99|-121212-111111-9-9-|-----------------|----------------|
|-----------------|-111111-111111-1111|-----------------|----------------|
|-----------------|-------------------|-1313131313131313|1111111111111111|
|-----------------|-------------------|-1111111111111111|9-9-9-9-9-9-9-9-|
|-----------------|-------------------|-----------------|----------------|

|
|-----------------|-----------------|----------------|-----------------|
|-----------------|-----------------|----------------|-----------------|
|----9---9---9---9|-----------------|----------------|----9---9---9---9|
|-9999999999999999|-1313131313131313|1111111111111111|-9999999999999999|
|-777-777-777-777-|-1111111111111111|9-9-9-9-9-9-9-9-|-777-777-777-777-|
|-----------------|-----------------|----------------|-----------------|

          __                      | 
|         X7|                     |
|-----------|---------------------|
|-----------|---------------------|
|-888-666-44|-16-14-13-14-13-11-13|
|-888-666-44|-X--X--X--X--X--X--X-|
|-666-444-22|-14-12-11-12-11-9--11|
|---------22|---------------------|

| Chorus 3                    __                   |
|                             X3|                  |
|-------------------------------|------------------|
|-------------------------------|------------------|
|-----------------99999999999999|-----------------9|
|-666666-99999999-99999999999999|-666666-99999999-9|
|-666666-99999999-77777777777777|-666666-99999999-7|
|-444444-77777777---------------|-444444-77777777--|

| Outro
|                                 X3|
|-----------------------------------|-------------------|
|-----------------------------------|-------------------|
|-13-13-13--13--13--13--13-15-15-16-|-16-16-16-15-11-13-|
|-X--X--X---X---X---X---X--X--X--X--|-X--X--X--X--X--X--|
|-11-11-11--11--11--11--11-13-13-14-|-14-14-14-13-9--11-|
|-----------------------------------|-------------------|
Tap to rate this tab
 
# A B C D E F G H I J K L M N O P Q R S T U V W X Y Z