Song name
# A B C D E F G H I J K L M N O P Q R S T U V W X Y Z

Rise Against - Help Is On The Way tab

#----------------------------------PLEASE NOTE---------------------------------#
#This file is the author's own work and represents their interpretation of the #
#song. You may only use this file for private study, scholarship, or research. #
#------------------------------------------------------------------------------#
HELP IS ON THE WAY
As recorded by Rise Against
(Released as a Single in 2011)






Gtr I (D# G# C# F# A# D#) - 'Tim'
Gtr II (D# G# C# F# A# D#) - 'Zach'
Gtr III (D# G# C# F# A# D#) 

  Q=110
 4/4
  Gtr I
                                       PM---|
  H.      E.  S    +E   E  E  E  E  E  S  S  S  S
|---------------|---------------------------------|
|---------------|---------------------------------|
|---------------|---------------------------------|
|-------------6-|--(6)--6--6--6--4--4--6--8--9--2-|
|-------------6-|--(6)--6--6--6--4--4--6--8--9--2-|
|-------------4-|--(4)--4--4--4--2--2--4--6--7--0-|
|
| Gtr II
| H.      E.  S    +E   E  E  E  E  E  S  S  S  S
|---------------|---------------------------------|
|---------------|---------------------------------|
|------------13-|-(13)-13-13-13-13-13-13-15-16-13-|
|---------------|---------------------------------|
|------------11-|-(11)-11-11-11-11-11-11-13-14-11-|
|---------------|---------------------------------|


                       PM---|
   +E   E  E  E  E  E  S  S  S  S
|------------------------------------|
|------------------------------------|
|------------------------------------|
|--(2)--2--2--2--4--4--6--8--9--6----|
|--(2)--2--2--2--4--4--6--8--9--6----|
|--(0)--0--0--0--2--2--4--6--7--4----|
|
|  +E   E  E  E  E  E  S  S  S  S
|------------------------------------|
|------------------------------------|
|-(13)-13-13-13-13-13-13-15-16-13----|
|------------------------------------|
|-(11)-11-11-11-11-11-11-13-14-11----|
|------------------------------------|


   +E   E  E  E  E  E  S  E     S    +E   E  E  E S  S  S  S  S  S   S  S
|---------------------------------|---------------------------------------|
|---------------------------------|---------------------------------------|
|----------------4--4--4--4-------|---------------------------------------|
|--(6)--6--6--6--4--4--4--4-----2-|--(2)--2--2--2----4--4--4--4--4---4--6-|
|--(6)--6--6--6--2--2--2--2-----2-|--(2)--2--2--2----4--4--4--4--4---4--6-|
|--(4)--4--4--4-----------------0-|--(0)--0--0--0----2--2--2--2--2---2--4-|
|
|  +E   E  E  E  E  E  S  S  S  S    +E   E  E  E S  S  S  S  S  S   S  S
|---------------------------------|---------------------------------------|
|---------------------------------|---------------------------------------|
|-(13)-13-13-13-11-11-15-16-15-16-|-(16)-16-16-16---15-15-15-15-15--15-13-|
|---------------------------------|---------------------------------------|
|-(11)-11-11-11--9--9-13-14-13-14-|-(14)-14-14-14---13-13-13-13-13--13-11-|
|---------------------------------|---------------------------------------|
|
| Gtr III
|   W                                 H.                         E.     S
|---------------------------------|---------------------------------------|
|---------------------------------|---------------------------------------|
|---------------------------------|------------------------------------13-|
|---------------------------------|---------------------------------------|
|---------------------------------|------------------------------------11-|
|---------------------------------|---------------------------------------|


                            PM---|
        +E   E  E  E  E  E  S  S  S  S
|----------------------------------------|
|----------------------------------------|
|----------------------------------------|
|-------(6)--6--6--6--4--4--6--8--9--2---|
|-------(6)--6--6--6--4--4--6--8--9--2---|
|-------(4)--4--4--4--2--2--4--6--7--0---|
|
|       +E   E  E  E  E  E  S  S  S  S
|----------------------------------------|
|----------------------------------------|
|------(13)-13-13-13-13-13-13-15-16-13---|
|----------------------------------------|
|------(11)-11-11-11-11-11-11-13-14-11---|
|----------------------------------------|
|
|  +Q           Q     Q     Q
|----------------------------------------|
|----------------------------------------|
|-(13)----------8----11----16------------|
|----------------------------------------|
|-(11)----------6-----9----14------------|
|----------------------------------------|


                                  PM---|
   +E   E  E  E     E        E    S  S  S  S
|--------------------------------------------|
|--------------------------------------------|
|--------------------------------------------|
|--(2)--2--2--2-----4--------4----6--8--9--6-|
|--(2)--2--2--2-----4--------4----6--8--9--6-|
|--(0)--0--0--0-----2--------2----4--6--7--4-|
|
|  +E   E  E  E     E        E    S  S  S  S
|--------------------------------------------|
|--------------------------------------------|
|-(13)-13-13-13----13-------13---13-15-16-13-|
|--------------------------------------------|
|-(11)-11-11-11----11-------11---11-13-14-11-|
|--------------------------------------------|
|
|   E   E  E  S  E     E  S  S E     S
|--------------------------------------------|
|--------------------------------------------|
|---9---9--9--8-11----11-11--8-9-----8-------|
|--------------------------------------------|
|---7---7--7--6--9-----9--9--6-7-----6-------|
|--------------------------------------------|


   +E   E  E  E  E  E  S  E     S    +E   E  E  E S  S  S  S  S  S  S  S
|---------------------------------|---------------------------------------|
|---------------------------------|---------------------------------------|
|----------------4--4--4--4-------|---------------------------------------|
|--(6)--6--6--6--4--4--4--4-----2-|--(2)--2--2--2----4--4--4--4--4--4--6--|
|--(6)--6--6--6--2--2--2--2-----2-|--(2)--2--2--2----4--4--4--4--4--4--6--|
|--(4)--4--4--4-----------------0-|--(0)--0--0--0----2--2--2--2--2--2--4--|
|
|  +E   E  E  E  E  E  S  S  S  S    +E   E  E  E S  S  S  S  S  S  S  S
|---------------------------------|---------------------------------------|
|---------------------------------|---------------------------------------|
|-(13)-13-13-13-16-16-15-16-15-16-|-(16)-16-16-16---15-15-15-15-15-15-13--|
|---------------------------------|---------------------------------------|
|-(11)-11-11-11-14-14-13-14-13-14-|-(14)-14-14-14---13-13-13-13-13-13-11--|
|---------------------------------|---------------------------------------|
|
|  +Q   Q     Q     E  S  S          +Q      Q    S  S  S  S  S  S  S  S
|---------------------------------|---------------------------------------|
|---------------------------------|---------------------------------------|
|--(8)--8-----8----11-----9-------|--(9)-----8-------3--3--3--3--3--3-----|
|-------8-----9-------------------|---------------------------------------|
|--(6)--6-----6-----9-----7-------|--(7)-----6-------1--1--1--1--1--1-----|
|---------------------------------|---------------------------------------|


 4/4
   +W            W         W          +H     Q  Q
|--------------|---------|----------|--------4----|
|--------------|---------|----------|-----------4-|
|--------------|---------|----------|-------------|
|--(6)---------|---------|-6--------|-(6)---------|
|--(6)---------|---------|-6--------|-(6)---------|
|--(4)---------|---------|-4--------|-(4)---------|
|
|  +W            W         W          +W
|--------------|---------|----------|-------------|
|--------------|---------|----------|-------------|
|-(13)---------|---------|----------|-------------|
|--------------|---------|-6--------|-(6)---------|
|-(11)---------|---------|-6--------|-(6)---------|
|--------------|---------|-4--------|-(4)---------|


  +W            H     S S S S S S S S   W
|------------|------------------------|--------------------------------|
|-(4)--------|------------------------|--------------------------------|
|------------|--------4-4-4-4-6-6-6-6-|--------------------------------|
|------------|--------4-4-4-4-6-6-6-6-|-6------------------------------|
|------------|--------2-2-2-2-4-4-4-4-|-6------------------------------|
|------------|------------------------|-4------------------------------|
|
|                                       PM------------------|
| +W           +H     S S S S S S S S   E S S S S S S S S S S S E S
|------------|------------------------|--------------------------------|
|------------|------------------------|--------------------------------|
|------------|--------4-4-4-4-6-6-6-6-|-4-4-4-4-4-4-4-4-4-4-4-4-3-4----|
|-(6)--------|-(6)----4-4-4-4-6-6-6-6-|-4-4-4-4-4-4-4-4-4-4-4-4-4-4----|
|-(6)--------|-(6)----2-2-2-2-4-4-4-4-|--------------------------------|
|-(4)--------|-(4)--------------------|--------------------------------|


  +H        Q   Q
|-----------4--------------------|
|---------------4----------------|
|--------------------------------|
|-(6)----------------------------|
|-(6)----------------------------|
|-(4)----------------------------|
|
|  PM-------------------|
| +E  S S S S S S S S S S S E  S
|--------------------------------|
|--------------------------------|
|-(4)-4-4-4-4-4-4-4-4-4-4-4-3--4-|
|-(4)-4-4-4-4-4-4-4-4-4-4-4-4--4-|
|--------------------------------|
|--------------------------------|


   W                                H.           E. S
|--------------------------------|-------------------------------|
|--5-----------------------------|--7----------------------------|
|--------------------------------|-------------------------------|
|--------------------------------|------------------2------------|
|--------------------------------|------------------2------------|
|--------------------------------|------------------0------------|
|
|  PM-------------------|           PM-----------|
| +E  S S S S S S S S S S S E  S   +E  S S S S S S  E E S E S
|--------------------------------|-------------------------------|
|--------------------------------|-------------------------------|
|-(4)-4-4-4-4-4-4-4-4-4-4-4-3--4-|-(4)-4-4-4-4-4-4--3-3-3-4-4----|
|-(4)-4-4-4-4-4-4-4-4-4-4-4-4--4-|-(4)-4-4-4-4-4-4--4-4-4-4------|
|--------------------------------|--------------------------2----|
|--------------------------------|-------------------------------|


  +E  E E E E E S E S   +E  E E E E E S E S
|---------------------|---------------------|
|---------------------|---------------------|
|---------------------|---------------------|
|-(2)-2-2-2-2-2-2-2-4-|-(4)-4-4-4-4-4-4-4-6-|
|-(2)-2-2-2-2-2-2-2-4-|-(4)-4-4-4-4-4-4-4-6-|
|-(0)-0-0-0-0-0-0-0-2-|-(2)-2-2-2-2-2-2-2-4-|
|
| +E  E E E E E S E S   +E  E E E E E S E S
|---------------------|---------------------|
|---------------------|---------------------|
|-(4)-4-4-4-4-4-4-4-3-|-(3)-3-3-3-3-3-3-3-4-|
|---------------------|---------------------|
|-(2)-2-2-2-2-2-2-2-1-|-(1)-1-1-1-1-1-1-1-2-|
|---------------------|---------------------|


  +E  E E E E E S E S   +E  E E E E E S E S
|---------------------|---------------------|
|---------------------|---------------------|
|-------------------4-|-(4)-4-4-4-4-4-4-4---|
|-(6)-6-6-6-6-6-6-6-4-|-(4)-4-4-4-4-4-4-4-2-|
|-(6)-6-6-6-6-6-6-6-2-|-(2)-2-2-2-2-2-2-2-2-|
|-(4)-4-4-4-4-4-4-4---|-------------------0-|
|
| +E  E E E E E S E S   +E  E E E E E S E S
|---------------------|---------------------|
|---------------------|---------------------|
|-(4)-4-4-4-4-4-4-4-8-|-(8)-8-8-8-8-8-9-8-4-|
|---------------------|---------------------|
|-(2)-2-2-2-2-2-2-2-6-|-(6)-6-6-6-6-6-7-6-2-|
|---------------------|---------------------|


  +E  E E E E E S E S   +H     S S S S S S S S   E E S S S E S E S S S S
|---------------------|------------------------|---------------------------|
|---------------------|------------------------|---------------------------|
|---------------------|------------------------|---------------------------|
|-(2)-2-2-2-2-2-2-2-4-|-(4)----x-x-x-x-x-x-x-x-|-6-6-6-6-6-4-4-4-x-x-x-2---|
|-(2)-2-2-2-2-2-2-2-4-|-(4)----x-x-x-x-x-x-x-x-|-6-6-6-6-6-4-4-4-x-x-x-2---|
|-(0)-0-0-0-0-0-0-0-2-|-(2)----x-x-x-x-x-x-x-x-|-4-4-4-4-4-2-2-2-x-x-x-0---|
|
| +E  E E E E E S E S   +H     S S S S S S S S   E E S S S E S E S S S S
|---------------------|------------------------|---------------------------|
|---------------------|------------------------|---------------------------|
|-(4)-4-4-4-4-4-4-4-3-|-(3)----x-x-x-x-x-x-x-x-|-----------------8-8-8-----|
|---------------------|------------------------|-6-6-6-6-6-4-4-4-------2---|
|-(2)-2-2-2-2-2-2-2-1-|-(1)----x-x-x-x-x-x-x-x-|-6-6-6-6-6-4-4-4-6-6-6-2---|
|---------------------|------------------------|-4-4-4-4-4-2-2-2-------0---|


  +E  E S S S E S E S S S S   E E S S S E S E S S S S   +E  E S S S E E E E.
|---------------------------|-------------------------|------------------------|
|---------------------------|-------------------------|------------------------|
|---------------------------|-------------------------|-------------4-4-6-6----|
|-(2)-2-2-2-2-2-2-2-2-2-2-2-|-6-6-6-6-6-4-4-4-x-x-x-2-|-(2)-2-2-2-2-4-4-6-6----|
|-(2)-2-2-2-2-2-2-2-2-2-2-2-|-6-6-6-6-6-4-4-4-x-x-x-2-|-(2)-2-2-2-2-2-2-4-4----|
|-(0)-0-0-0-0-0-0-0-0-0-0-0-|-4-4-4-4-4-2-2-2-x-x-x-0-|-(0)-0-0-0-0------------|
|
| +E  E S S S E S E S S S S   E E S S S E S E S S S S   +E  E S S S E E E E.
|---------------------------|-------------------------|------------------------|
|---------------------------|-------------------------|------------------------|
|---------------------------|-----------------8-8-8---|-------------4-4-6-6----|
|-(2)-2-2-2-2-2-2-2-2-2-2-2-|-6-6-6-6-6-4-4-4-------2-|-(2)-2-2-2-2-4-4-6-6----|
|-(2)-2-2-2-2-2-2-2-2-2-2-2-|-6-6-6-6-6-4-4-4-6-6-6-2-|-(2)-2-2-2-2-2-2-4-4----|
|-(0)-0-0-0-0-0-0-0-0-0-0-0-|-4-4-4-4-4-2-2-2-------0-|-(0)-0-0-0-0------------|


  E E S S S E S E S S S S   +E  E S S S E S E S S S S
|-------------------------|---------------------------|
|-------------------------|---------------------------|
|-----------------------4-|-(4)-4-4-4-4---------------|
|-6-6-6-6-6-4-4-4-4-4-4-4-|-(4)-4-4-4-4-2-2-2-2-2-2-2-|
|-6-6-6-6-6-4-4-4-4-4-4-2-|-(2)-2-2-2-2-2-2-2-2-2-2-2-|
|-4-4-4-4-4-2-2-2-2-2-2---|-------------0-0-0-0-0-0-0-|
|
| E E S S S E S E S S S S   +E  E S S S E S E S S S S
|-------------------------|---------------------------|
|-------------------------|---------------------------|
|-----------------------4-|-(4)-4-4-4-4---------------|
|-6-6-6-6-6-4-4-4-4-4-4-4-|-(4)-4-4-4-4-2-2-2-2-2-2-2-|
|-6-6-6-6-6-4-4-4-4-4-4-2-|-(2)-2-2-2-2-2-2-2-2-2-2-2-|
|-4-4-4-4-4-2-2-2-2-2-2---|-------------0-0-0-0-0-0-0-|


  E E S S S E S E E.     S
|---------------------------|
|---------------------------|
|---------------------------|
|-6-6-6-6-6-4-4-4--------2--|
|-6-6-6-6-6-4-4-4--------2--|
|-4-4-4-4-4-2-2-2--------0--|
|
| E E S S S E S E S  S S S
|---------------------------|
|---------------------------|
|-----------------8--8-8----|
|-6-6-6-6-6-4-4-4--------2--|
|-6-6-6-6-6-4-4-4-6--6-6-2--|
|-4-4-4-4-4-2-2-2--------0--|


  +W           +H     S S S S Q    W          +W
|------------|-------------------|----------|--------|
|------------|-------------------|----------|--------|
|------------|--------4-4-4-6----|----------|--------|
|-(2)--------|-(2)----4-4-4-6----|-6--------|-(6)----|
|-(2)--------|-(2)----2-2-2-4----|-6--------|-(6)----|
|-(0)--------|-(0)---------------|-4--------|-(4)----|
|
| +W           +H     S S S S Q    W          +W
|------------|-------------------|----------|--------|
|------------|-------------------|----------|--------|
|------------|--------4-4-4-6----|----------|--------|
|-(2)--------|-(2)----4-4-4-6----|-6--------|-(6)----|
|-(2)--------|-(2)----2-2-2-4----|-6--------|-(6)----|
|-(0)--------|-(0)---------------|-4--------|-(4)----|


  +W           +H     S S S S S S S S    Q   Q   Q   Q
|------------|------------------------|--------------------------------|
|------------|------------------------|--------------------------------|
|------------|--------4-4-4-4-6-6-6-6-|-13---8---6---8-----------------|
|-(6)--------|-(6)----4-4-4-4-6-6-6-6-|--------------------------------|
|-(6)--------|-(6)----2-2-2-2-4-4-4-4-|-11---6---4---6-----------------|
|-(4)--------|-(4)--------------------|--------------------------------|
|
|                                          PM------------------------|
| +W           +H     S S S S S S S S    E S S S S S S S S S S S S S S
|------------|------------------------|--------------------------------|
|------------|------------------------|--------------------------------|
|------------|--------4-4-4-4-6-6-6-6-|--------------------------------|
|-(6)--------|-(6)----4-4-4-4-6-6-6-6-|--6-6-6-6-6-6-6-6-6-6-6-6-6-6-6-|
|-(6)--------|-(6)----2-2-2-2-4-4-4-4-|--6-6-6-6-6-6-6-6-6-6-6-6-6-6-6-|
|-(4)--------|-(4)--------------------|--4-4-4-4-4-4-4-4-4-4-4-4-4-4-4-|


  +W                                 Q     Q       Q     Q
|---------------------------------|--------------------------------|
|---------------------------------|--------------------------------|
|-(8)-----------------------------|-13-----8-------6-----8---------|
|---------------------------------|--------------------------------|
|-(6)-----------------------------|-11-----6-------4-----6---------|
|---------------------------------|--------------------------------|
|
|     PM------------------------|      PM------------------------|
|  E  S S S S S S S S S S S S S S    E S S S S S S S S S S S S S S
|---------------------------------|--------------------------------|
|---------------------------------|--------------------------------|
|--4--4-4-4-4-4-4-4-4-4-4-4-4-4-4-|--9-9-9-9-9-9-9-9-9-9-9-9-9-9-9-|
|--4--4-4-4-4-4-4-4-4-4-4-4-4-4-4-|--9-9-9-9-9-9-9-9-9-9-9-9-9-9-9-|
|--2--2-2-2-2-2-2-2-2-2-2-2-2-2-2-|--7-7-7-7-7-7-7-7-7-7-7-7-7-7-7-|
|---------------------------------|--------------------------------|


   H.                    E.  S
|--------------------------------------|
|--------------------------------------|
|--6-----------------------------------|
|----------------------------2---------|
|--4-------------------------2---------|
|----------------------------0---------|
|
|      PM------------|
|  E   S  S  S  S  S  S  E   E  S  E S
|--------------------------------------|
|--------------------------------------|
|-11--11-11-11-11-11-11-11--11-11-11-4-|
|-11--11-11-11-11-11-11-11--11-11-11---|
|--9---9--9--9--9--9--9--9---9--9--9-2-|
|--------------------------------------|


  +E  E E E E E S E S   +E  E E E E E S E S
|---------------------|---------------------|
|---------------------|---------------------|
|---------------------|---------------------|
|-(2)-2-2-2-2-2-2-2-4-|-(4)-4-4-4-4-4-4-4-6-|
|-(2)-2-2-2-2-2-2-2-4-|-(4)-4-4-4-4-4-4-4-6-|
|-(0)-0-0-0-0-0-0-0-2-|-(2)-2-2-2-2-2-2-2-4-|
|
| +E  E E E E E S E S   +E  E E E E E S E S
|---------------------|---------------------|
|---------------------|---------------------|
|-(4)-4-4-4-4-4-4-4-3-|-(3)-3-3-3-3-3-3-3-4-|
|---------------------|---------------------|
|-(2)-2-2-2-2-2-2-2-1-|-(1)-1-1-1-1-1-1-1-2-|
|---------------------|---------------------|


  +E  E E E E E S E S   +E  E E E E E S E S
|---------------------|---------------------|
|---------------------|---------------------|
|-------------------4-|-(4)-4-4-4-4-4-4-4---|
|-(6)-6-6-6-6-6-6-6-4-|-(4)-4-4-4-4-4-4-4-2-|
|-(6)-6-6-6-6-6-6-6-2-|-(2)-2-2-2-2-2-2-2-2-|
|-(4)-4-4-4-4-4-4-4---|-------------------0-|
|
| +E  E E E E E S E S   +E  E E E E E S E S
|---------------------|---------------------|
|---------------------|---------------------|
|-(4)-4-4-4-4-4-4-4-8-|-(8)-8-8-8-8-8-9-8-4-|
|---------------------|---------------------|
|-(2)-2-2-2-2-2-2-2-6-|-(6)-6-6-6-6-6-7-6-2-|
|---------------------|---------------------|


  +E  E E E E E S E S   +H     S S S S S S S S   E E S S S E S E S S S S
|---------------------|------------------------|---------------------------|
|---------------------|------------------------|---------------------------|
|---------------------|------------------------|---------------------------|
|-(2)-2-2-2-2-2-2-2-4-|-(4)----x-x-x-x-x-x-x-x-|-6-6-6-6-6-4-4-4-x-x-x-2---|
|-(2)-2-2-2-2-2-2-2-4-|-(4)----x-x-x-x-x-x-x-x-|-6-6-6-6-6-4-4-4-x-x-x-2---|
|-(0)-0-0-0-0-0-0-0-2-|-(2)----x-x-x-x-x-x-x-x-|-4-4-4-4-4-2-2-2-x-x-x-0---|
|
| +E  E E E E E S E S   +H     S S S S S S S S   E E S S S E S E S S S S
|---------------------|------------------------|---------------------------|
|---------------------|------------------------|---------------------------|
|-(4)-4-4-4-4-4-4-4-3-|-(3)----x-x-x-x-x-x-x-x-|-----------------8-8-8-----|
|---------------------|------------------------|-6-6-6-6-6-4-4-4-------2---|
|-(2)-2-2-2-2-2-2-2-1-|-(1)----x-x-x-x-x-x-x-x-|-6-6-6-6-6-4-4-4-6-6-6-2---|
|---------------------|------------------------|-4-4-4-4-4-2-2-2-------0---|


  +E  E S S S E S E S S S S   E E S S S E S E S S S S   +E  E S S S E E E E.
|---------------------------|-------------------------|------------------------|
|---------------------------|-------------------------|------------------------|
|---------------------------|-------------------------|-------------4-4-6-6----|
|-(2)-2-2-2-2-2-2-2-2-2-2-2-|-6-6-6-6-6-4-4-4-x-x-x-2-|-(2)-2-2-2-2-4-4-6-6----|
|-(2)-2-2-2-2-2-2-2-2-2-2-2-|-6-6-6-6-6-4-4-4-x-x-x-2-|-(2)-2-2-2-2-2-2-4-4----|
|-(0)-0-0-0-0-0-0-0-0-0-0-0-|-4-4-4-4-4-2-2-2-x-x-x-0-|-(0)-0-0-0-0------------|
|
| +E  E S S S E S E S E   S   E E S S S E S E S S S S   +E  E S S S E E E E.
|---------------------------|-------------------------|------------------------|
|---------------------------|-------------------------|------------------------|
|---------------------------|-----------------8-8-8---|-------------4-4-6-6----|
|-(2)-2-2-2-2-2-2-2-2-2---2-|-6-6-6-6-6-4-4-4-------2-|-(2)-2-2-2-2-4-4-6-6----|
|-(2)-2-2-2-2-2-2-2-2-2---2-|-6-6-6-6-6-4-4-4-6-6-6-2-|-(2)-2-2-2-2-2-2-4-4----|
|-(0)-0-0-0-0-0-0-0-0-0---0-|-4-4-4-4-4-2-2-2-------0-|-(0)-0-0-0-0------------|


  E E S S S E S E S S S S
|-------------------------|
|-------------------------|
|-----------------------4-|
|-6-6-6-6-6-4-4-4-4-4-4-4-|
|-6-6-6-6-6-4-4-4-4-4-4-2-|
|-4-4-4-4-4-2-2-2-2-2-2---|
|
| E E S S S E S E S S S S
|-------------------------|
|-------------------------|
|-----------------------4-|
|-6-6-6-6-6-4-4-4-4-4-4-4-|
|-6-6-6-6-6-4-4-4-4-4-4-2-|
|-4-4-4-4-4-2-2-2-2-2-2---|


  +E  E S S S E S E S S S S   E E S S S E S E E.   S
|---------------------------|-------------------------|
|---------------------------|-------------------------|
|-(4)-4-4-4-4---------------|-------------------------|
|-(4)-4-4-4-4-2-2-2-2-2-2-2-|-6-6-6-6-6-4-4-4------2--|
|-(2)-2-2-2-2-2-2-2-2-2-2-2-|-6-6-6-6-6-4-4-4------2--|
|-------------0-0-0-0-0-0-0-|-4-4-4-4-4-2-2-2------0--|
|
| +E  E S S S E S E S S S S   E E S S S E S E E.   S
|---------------------------|-------------------------|
|---------------------------|-------------------------|
|-(4)-4-4-4-4---------------|-------------------------|
|-(4)-4-4-4-4-2-2-2-2-2-2-2-|-6-6-6-6-6-4-4-4---------|
|-(2)-2-2-2-2-2-2-2-2-2-2-2-|-6-6-6-6-6-4-4-4---------|
|-------------0-0-0-0-0-0-0-|-4-4-4-4-4-2-2-2---------|


                                  Q=150
                                    PM|   PM|   PM    PM|   PM|   PM
  +W            W                 E E E E E E E E   E E E E E E E E
|-------------|---------------||------------------|-----------------|
|-------------|---------------||o-----------------|-----------------|
|-------------|---------------||--8-----6-----4---|-8-----6-----4---|
|-(2)---------|-4-------------||--6-6-6-6-6-6-6-6-|-6-6-6-6-6-6-6-6-|
|-(2)---------|-4-------------||o-----------------|-----------------|
|-(0)---------|-2-------------||------------------|-----------------|
|
|  H      H     Q.   H    +E      W                 W
|-------------|---------------||------------------|-----------------|
|-------------|---------------||o-----------------|-----------------|
|---------8---|-6----6----(6)-||------------------|-----------------|
|-------------|---------------||------------------|-----------------|
|---------6---|-4----4----(4)-||o-----------------|-----------------|
|-------------|---------------||------------------|-----------------|


                                          PM|   PM|   PM      PM|   PM|   PM
  E E E E E E E E   E E E E E E E E     E E E E E E E E    E  E E E E E E E
|-----------------|------------------||-----------------|-------------------|
|-----------------|-----------------o||-----------------|-------------------|
|-----------------|------------------||-8-----6-----4---|--8------6-----4---|
|-2-2-2-2-2-2-2-2-|-2-2-2-2-2-2-2-2--||-6-6-6-6-6-6-6-6-|--6--6-6-6-6-6-6-6-|
|-2-2-2-2-2-2-2-2-|-2-2-2-2-2-2-2-2-o||-----------------|-------------------|
|-0-0-0-0-0-0-0-0-|-0-0-0-0-0-0-0-0--||-----------------|-------------------|
|
| E E E E E E E E   E E E E E E E E     W                 +W
|-----------------|------------------||-----------------|-------------------|
|-----------------|-----------------o||-----------------|-------------------|
|-9-9-9-9-9-9-9-9-|-9-9-9-9-9-9-9-9--||-8---------------|-(8)---------------|
|-----------------|------------------||-----------------|-------------------|
|-7-7-7-7-7-7-7-7-|-7-7-7-7-7-7-7-7-o||-6---------------|-(6)---------------|
|-----------------|------------------||-----------------|-------------------|


  E E E E E E E E   E E E E E E E E
|-----------------|-----------------|
|-----------------|-----------------|
|-----------------|-----------------|
|-2-2-2-2-2-2-2-2-|-2-2-2-2-2-2-2-2-|
|-2-2-2-2-2-2-2-2-|-2-2-2-2-2-2-2-2-|
|-0-0-0-0-0-0-0-0-|-0-0-0-0-0-0-0-0-|
|
| E E E E E E E E   E E E E E E E E
|-----------------|-----------------|
|-----------------|-----------------|
|-9-9-9-9-9-9-9-9-|-9-9-9-9-9-9-9-9-|
|-----------------|-----------------|
|-7-7-7-7-7-7-7-7-|-7-7-7-7-7-7-7-7-|
|-----------------|-----------------|


    PM---------------------------------------------|
    E E E  E  E  E E E  8x      E  E  E  E  E  E E E  14x
||----------------------||-||--------------------------||
||o--------7--7--7-----o||-||o-----------7--7--7------o||
||-----------------8-8--||-||--------------------8-8---||
||--9-9-9---------------||-||---9--9--9----------------||
||o--------------------o||-||o------------------------o||
||----------------------||-||--------------------------||
|
|   PM---------------------------------------------|
|   E E E  E  E  E E E  8x      E  E  E  E  E  E E E  14x
||----------------------||-||--------------------------||
||o--------------------o||-||o-12-12-12-11-11-11-9-9--o||
||----------------------||-||--------------------------||
||--9-9-9-11-11-11-9-9--||-||--------------------------||
||o--------------------o||-||o------------------------o||
||----------------------||-||--------------------------||


   PM-----------------|
   E  E  E  E  E  E E E    E  E  E  E  E  E E E
|-----------------------|-----------------------|
|-----------7--7--7-----|-----------7--7--7-----|
|-------------------8-8-|-------------------8-8-|
|--9--9--9--------------|--9--9--9--------------|
|-----------------------|-----------------------|
|-----------------------|-----------------------|
|
|  E  E  E  E  E  E E E    E  E  E  E  E  E E E
|-----------------------|-----------------------|
|-12-12-12-11-11-11-9-9-|-12-12-12-11-11-11-9-9-|
|-----------------------|-----------------------|
|-----------------------|-----------------------|
|-----------------------|-----------------------|
|-----------------------|-----------------------|
|
| Gtr III
|  W                       W
|-----------------------|-----------------------|
|-----------------------|-----------------------|
|-----------------------|-----------------------|
|-----------------------|-----------------------|
|-----------------------|-----------------------|
|-----------------------|-----------------------|


    W                    W
||---------------------|-----------------------|
||o--------------------|-----------------------|
||---------------------|-----------------------|
||--6------------------|-4---------------------|
||o-6------------------|-4---------------------|
||--4------------------|-2---------------------|
|
|   W                    W
||---------------------|-----------------------|
||o--------------------|-----------------------|
||---------------------|-----------------------|
||--6------------------|-4---------------------|
||o-6------------------|-4---------------------|
||--4------------------|-2---------------------|
|
|   E E E  E  E  E E E   E E E  E  E  E E E
||---------------------|-----------------------|
||o--------------------|-----------------------|
||--4-4-4-11-11-11-8-8-|-4-4-4-11-11-11-8-8----|
||---------------------|-----------------------|
||o-2-2-2--9--9--9-6-6-|-2-2-2--9--9--9-6-6----|
||---------------------|-----------------------|


  E E E  E  E  E E E    E  E E  E  E  E E E
|--------------------|-----------------------||
|-5-5-5--4--4--4-0-0-|--5--5-5--4--4--4-0-0-o||
|-4-4-4--4--4--4-4-4-|--4--4-4--4--4--4-4-4--||
|--------------------|-----------------------||
|--------------------|----------------------o||
|--------------------|-----------------------||
|
| W                    +W
|--------------------|-----------------------||
|--------------------|----------------------o||
|--------------------|-----------------------||
|-2------------------|-(2)-------------------||
|-2------------------|-(2)------------------o||
|-0------------------|-(0)-------------------||
|
| E E E  E  E  E E E    E  E E  E  E  E E E
|--------------------|-----------------------||
|--------------------|----------------------o||
|-4-4-4-11-11-11-8-8-|--4--4-4-11-11-11-8-8--||
|--------------------|-----------------------||
|-2-2-2--9--9--9-6-6-|--2--2-2--9--9--9-6-6-o||
|--------------------|-----------------------||


  E E E  E  E  E E E   E E E  E  E  E E E
|--------------------|--------------------|
|-0-0-0--2--2--2-4-4-|-0-0-0--2--2--2-4-4-|
|-4-4-4--4--4--4-4-4-|-4-4-4--4--4--4-4-4-|
|--------------------|--------------------|
|--------------------|--------------------|
|--------------------|--------------------|
|
| E E E  E  E  E E E   E E E  E  E  E E E
|--------------------|--------------------|
|--------------------|--------------------|
|--------------------|--------------------|
|-6-6-6--6--6--6-6-6-|-4-4-4--4--4--4-4-4-|
|-6-6-6--6--6--6-6-6-|-4-4-4--4--4--4-4-4-|
|-4-4-4--4--4--4-4-4-|-2-2-2--2--2--2-2-2-|
|
| E E E  E  E  E E E   E E E  E  E  E E E
|--------------------|--------------------|
|--------------------|--------------------|
|-4-4-4-11-11-11-8-8-|-4-4-4-11-11-11-8-8-|
|--------------------|--------------------|
|-2-2-2--9--9--9-6-6-|-2-2-2--9--9--9-6-6-|
|--------------------|--------------------|


    E E E E E E E E    E  E  E  E  E  E  E  E
||------------------|--------------------------||
||o-----------------|-------------------------o||
||--4-4-4-4-4-4-4-4-|-11-11-11-11-11-11-11-11--||
||------------------|--------------------------||
||o-2-2-2-2-2-2-2-2-|--9--9--9--9--9--9--9--9-o||
||------------------|--------------------------||
|
|   E E E E E E E E    E  E  E  E  E  E  E  E
||------------------|--------------------------||
||o-----------------|-------------------------o||
||--8-8-8-6-6-6-4-4-|--8--8--8--6--6--6--4--4--||
||------------------|--------------------------||
||o-6-6-6-6-4-4-2-2-|--6--6--6--4--4--4--2--2-o||
||------------------|--------------------------||


                     |--3--|  |--3--|
  E E E E E E E E    Q  Q  Q  Q  Q  Q
|-----------------|--------------------|
|-----------------|--------------------|
|-4-4-4-4-4-4-4-4-|-16-15-13-11-13-11--|
|-----------------|--------------------|
|-2-2-2-2-2-2-2-2-|-14-13-11--9-11--9--|
|-----------------|--------------------|
|
|                    |--3--|  |--3--|
| E E E E E E E E    Q  Q  Q  Q  Q  Q
|-----------------|--------------------|
|-----------------|--------------------|
|-8-8-8-6-6-6-4-4-|--------------------|
|-----------------|--4--4--4--4--6--4--|
|-6-6-6-6-4-4-2-2-|--4--4--4--4--6--4--|
|-----------------|--2--2--2--2--4--2--|


  Q=120
   Q  H    E. S   +E  E S S S E S E S S S S
|---------------|---------------------------|
|---------------|---------------------------|
|-13------------|---------------------------|
|-------------2-|-(2)-2-2-2-2-2-2-2-2-2-2-2-|
|-11----------2-|-(2)-2-2-2-2-2-2-2-2-2-2-2-|
|-------------0-|-(0)-0-0-0-0-0-0-0-0-0-0-0-|
|
|  Q  H    E. S   +E  E S S S E S E S S S S
|---------------|---------------------------|
|---------------|---------------------------|
|---------------|---------------------------|
|--6----------2-|-(2)-2-2-2-2-2-2-2-2-2-2-2-|
|--6----------2-|-(2)-2-2-2-2-2-2-2-2-2-2-2-|
|--4----------0-|-(0)-0-0-0-0-0-0-0-0-0-0-0-|


  E E S S S E S E S S S S   +E  E S S S E E E E.
|-------------------------|-------------------------|
|-------------------------|-------------------------|
|-------------------------|-------------4-4-6-6-----|
|-6-6-6-6-6-4-4-4-x-x-x-2-|-(2)-2-2-2-2-4-4-6-6-----|
|-6-6-6-6-6-4-4-4-x-x-x-2-|-(2)-2-2-2-2-2-2-4-4-----|
|-4-4-4-4-4-2-2-2-x-x-x-0-|-(0)-0-0-0-0-------------|
|
| E E S S S E S E S S S S    E  E S S S E E E E.
|-------------------------|-------------------------|
|-------------------------|-------------------------|
|-----------------8-8-8---|-------------4-4-6-6-----|
|-6-6-6-6-6-4-4-4-------2-|--2--2-2-2-2-4-4-6-6-----|
|-6-6-6-6-6-4-4-4-6-6-6-2-|--2--2-2-2-2-2-2-4-4-----|
|-4-4-4-4-4-2-2-2-------0-|--0--0-0-0-0-------------|


  E E S S S E S E S S S S   +E  E S S S E S E S S S S
|-------------------------|---------------------------|
|-------------------------|---------------------------|
|-----------------------4-|-(4)-4-4-4-4---------------|
|-6-6-6-6-6-4-4-4-4-4-4-4-|-(4)-4-4-4-4-2-2-2-2-2-2-2-|
|-6-6-6-6-6-4-4-4-4-4-4-2-|-(2)-2-2-2-2-2-2-2-2-2-2-2-|
|-4-4-4-4-4-2-2-2-2-2-2---|-------------0-0-0-0-0-0-0-|
|
| E E S S S E S E S S S S   +E  E S S S E S E S S S S
|-------------------------|---------------------------|
|-------------------------|---------------------------|
|-----------------------4-|-(4)-4-4-4-4---------------|
|-6-6-6-6-6-4-4-4-4-4-4-4-|-(4)-4-4-4-4-2-2-2-2-2-2-2-|
|-6-6-6-6-6-4-4-4-4-4-4-2-|-(2)-2-2-2-2-2-2-2-2-2-2-2-|
|-4-4-4-4-4-2-2-2-2-2-2---|-------------0-0-0-0-0-0-0-|


                        Q=110
  E E S S S E S E S S S  S
|---------------------------|
|---------------------------|
|---------------------------|
|-6-6-6-6-6-4-4-4-4-4-4--6--|
|-6-6-6-6-6-4-4-4-4-4-4--6--|
|-4-4-4-4-4-2-2-2-2-2-2--4--|
|
| E E S S S E S E S S S  S
|---------------------------|
|---------------------------|
|-----------------------13--|
|-6-6-6-6-6-4-4-4-4-4-4-----|
|-6-6-6-6-6-4-4-4-4-4-4-11--|
|-4-4-4-4-4-2-2-2-2-2-2-----|


                       PM---|                            PM---|
   +E   E  E  E  E  E  S  S  S  S    +E   E  E  E  E  E  S  S  S  S
|---------------------------------|---------------------------------|
|---------------------------------|---------------------------------|
|---------------------------------|---------------------------------|
|--(6)--6--6--6--4--4--6--8--9--2-|--(2)--2--2--2--4--4--6--8--9--6-|
|--(6)--6--6--6--4--4--6--8--9--2-|--(2)--2--2--2--4--4--6--8--9--6-|
|--(4)--4--4--4--2--2--4--6--7--0-|--(0)--0--0--0--2--2--4--6--7--4-|
|
|  +E   E  E  E  E  E  S  S  S  S    +E   E  E  E  E  E  S  S  S  S
|---------------------------------|---------------------------------|
|---------------------------------|---------------------------------|
|-(13)-13-13-13-13-13-13-15-16-13-|-(13)-13-13-13-13-13-13-15-16-13-|
|---------------------------------|---------------------------------|
|-(11)-11-11-11-11-11-11-13-14-11-|-(11)-11-11-11-11-11-11-13-14-11-|
|---------------------------------|---------------------------------|


                       PM---|                            PM---|
   +E   E  E  E  E  E  S  S  S  S    +E   E  E  E  E  E  S  S  S  S
|---------------------------------|----------------------------------|
|---------------------------------|----------------------------------|
|---------------------------------|----------------------------------|
|--(6)--6--6--6--4--4--6--8--9--2-|--(2)--2--2--2--4--4--9--8--6--6--|
|--(6)--6--6--6--4--4--6--8--9--2-|--(2)--2--2--2--4--4--9--8--6--6--|
|--(4)--4--4--4--2--2--4--6--7--0-|--(0)--0--0--0--2--2--7--6--4--4--|
|
|  +E   E  E  E  E  E  S  S  S  S    +E   E  E  E  E  E  S  S  S  S
|---------------------------------|----------------------------------|
|---------------------------------|----------------------------------|
|-(13)-13-13-13-13-13-13-15-16-13-|-(13)-13-13-13-13-13-16-15-13-13--|
|---------------------------------|----------------------------------|
|-(11)-11-11-11-11-11-11-13-14-11-|-(11)-11-11-11-11-11-14-13-11-11--|
|---------------------------------|----------------------------------|


   +Q   Q  H      W
|---------------|------*|
|---------------|------*|
|---------------|------*|
|--(6)----------|------*|
|--(6)----------|------*|
|--(4)----------|------*|
|
|  +Q   Q  H      W
|---------------|------*|
|---------------|------*|
|-(13)----------|------*|
|---------------|------*|
|-(11)----------|------*|
|---------------|------*|


Duration Legend
---------------
W - whole; H - half; Q - quarter; E - 8th; S - 16th; T - 32nd; X - 64th; a - acciaccatura
+ - note tied to previous; . - note dotted; .. - note double dotted
Uncapitalized letters represent notes that are staccato (1/2 duration)
Irregular groupings are notated above the duration line
Duration letters will always appear directly above the note/fret number it represents the
duration for.  Duration letters with no fret number below them represent rests.  Multi-
bar rests are notated in the form Wxn, where n is the number of bars to rest for.  Low
melody durations appear below the staff

Tablature Legend
----------------
 h   - hammer-on
 p   - pull-off
 b   - bend
 pb  - pre-bend
 r   - bend release (if no number after the r, then release immediately)
 /\  - slide into or out of (from/to "nowhere")
 s   - legato slide
 S   - shift slide
 - natural harmonic
[n]  - artificial harmonic
n(n) - tapped harmonic
 ~   - vibrato
 tr  - trill
 T   - tap
 TP  - trem. picking
 PM  - palm muting
\n/  - tremolo bar dip; n = amount to dip
 \n  - tremolo bar down
 n/  - tremolo bar up
/n\  - tremolo bar inverted dip
 =   - hold bend; also acts as connecting device for hammers/pulls
 <> - volume swell (louder/softer)
 x   - on rhythm slash represents muted slash
 o   - on rhythm slash represents single note slash

Misc Legend
-----------
 |  - bar
||  - double bar
||o - repeat start
o|| - repeat end
*|  - double bar (ending)
 :  - bar (freetime)
 $  - Segno
 &  - Coda
Tempo markers -  = BPM(8/16=s8/s16), where s8 = swing 8ths, s16 = swing 16ths

** Generated using Power Tab Editor by Brad Larsen: The Official Power Tab Web Site
Tap to rate this tab
 
# A B C D E F G H I J K L M N O P Q R S T U V W X Y Z