Rise Against - Life Less Frightening tab

Life Less Frightening
Rise Against
Siren Song of the Counter Culture (2004)

Words & Music by Tim McIlrath, Chris Chasse, Joe Principe, and Brandon Barnes

GTR I - Eb Tuning "Tim McIlrath" (eb,Bb,Gb,Db,Ab,Eb)
GTR II - Eb Tuning "Chris Chasse" (eb,Bb,Gb,Db,Ab,Eb)

Intro

   GTR II
eb|-------------------------------------------------|
Bb|--6--5--6--5--6--5--6--5--6--5--6--5--6--5--6--5-|
Gb|--5--5--5--5--5--5--5--5--5--5--5--5--5--5--5--5-|
Db|-------------------------------------------------|
Ab|-------------------------------------------------|
Eb|-------------------------------------------------|

   GTR II
eb|-------------------------------------------------|
Bb|--6--5--6--5--6--5--6--5--6--5--6--5--6--5--6--5-|
Gb|--5--5--5--5--5--5--5--5--5--5--5--5--5--5--5--5-|
Db|-------------------------------------------------|
Ab|-------------------------------------------------|
Eb|-------------------------------------------------|

   GTR II
eb|-------------------------------------------------|
Bb|--6--5--6--5--6--5--6--5--6--5--6--5--6--5--6--5-|
Gb|--5--5--5--5--5--5--5--5--5--5--5--5--5--5--5--5-|
Db|-------------------------------------------------|
Ab|-------------------------------------------------|
Eb|-------------------------------------------------|

   GTR II
eb|-------------------------------------------------|
Bb|--6--5--6--5--6--5--6--5--6--5--6--5--6--5--6--5-|
Gb|--5--5--5--5--5--5--5--5--5--5--5--5--5--5--5--5-|
Db|-------------------------------------------------|
Ab|-------------------------------------------------|
Eb|-------------------------------------------------|

   GTR I
eb|-------------------------------------------------|
Bb|-------------------------------------------------|
Gb|-------------------------------------------------|
Db|-------------------------------------------------|
Ab|--------------------------Pickslide--------------|
Eb|--------------------------Pickslide--------------|
  |
  |GTR II
eb|-------------------------------------------------|
Bb|--6--5--6--5--6--5--6--5--6--5--6--5-------------|
Gb|--5--5--5--5--5--5--5--5--5--5--5--5-------------|
Db|-------------------------------------------------|
Ab|--------------------------------------Pickslide--|
Eb|--------------------------------------Pickslide--|

   GTR I
eb|-------------------------------------------------|
Bb|-------------------------------------------------|
Gb|-------------------------------------------------|
Db|--2--2--2--2--2--2--2--2--3--3--3--3--5--5--5--5-|
Ab|--2--2--2--2--2--2--2--2--3--3--3--3--5--5--5--5-|
Eb|--0--0--0--0--0--0--0--0--1--1--1--1--3--3--3--3-|
  |
  |GTR II
eb|-------------------------------------------------|
Bb|-------------------------------------------------|
Gb|--9--9--9--9--9--9--7--9-10-----9-10-12-12-12-12-|
Db|--x--x--x--x--x--x--x--x--x-----x--x--x--x--x--x-|
Ab|--7--7--7--7--7--7--5--7--8-----7--8-10-10-10-10-|
Eb|-------------------------------------------------|

Main Riff

   GTR I
eb|-------------------------------------------------|
Bb|-------------------------------------------------|
Gb|-------------------------------------------------|
Db|--7--7--7--7--7--7--7--7--3--3--3--3--5--5--5--5-|
Ab|--7--7--7--7--7--7--7--7--3--3--3--3--5--5--5--5-|
Eb|--5--5--5--5--5--5--5--5--1--1--1--1--3--3--3--3-|
  |
  |GTR II
eb|-------------------------------------------------|
Bb|-------------------------------------------------|
Gb|--------9--9-10-10-12-12--5--5--5--7--7--7--7--7-|
Db|--------x--x--x--x--x--x--x--x--x--x--x--x--x--x-|
Ab|--------7--7--8--8-10-10--3--3--3--5--5--5--5--5-|
Eb|-------------------------------------------------|

   GTR I
eb|-------------------------------------------------|
Bb|-------------------------------------------------|
Gb|-------------------------------------------------|
Db|--7--7--7--7--7--7--7--7--3--3--3--3--5--5--5--5-|
Ab|--7--7--7--7--7--7--7--7--3--3--3--3--5--5--5--5-|
Eb|--5--5--5--5--5--5--5--5--1--1--1--1--3--3--3--3-|
  |
  |GTR II
eb|-------------------------------------------------|
Bb|-------------------------------------------------|
Gb|--------9--9-10-10-12-12--5--5--5--7--4--4--4--4-|
Db|--------x--x--x--x--x--x--x--x--x--x--x--x--x--x-|
Ab|--------7--7--8--8-10-10--3--3--3--5--2--2--2--2-|
Eb|-------------------------------------------------|

   GTR I
eb|-------------------------------------------------|
Bb|-------------------------------------------------|
Gb|-------------------------------------------------|
Db|--7--7--7--7--7--7--7--7--3--3--3--3--5--5--5--5-|
Ab|--7--7--7--7--7--7--7--7--3--3--3--3--5--5--5--5-|
Eb|--5--5--5--5--5--5--5--5--1--1--1--1--3--3--3--3-|
  |
  |GTR II
eb|-------------------------------------------------|
Bb|-------------------------------------------------|
Gb|--------9--9-10-10-12-12--5--5--5--7--7--7--7--7-|
Db|--------x--x--x--x--x--x--x--x--x--x--x--x--x--x-|
Ab|--------7--7--8--8-10-10--3--3--3--5--5--5--5--5-|
Eb|-------------------------------------------------|

   GTR I
eb|-------------------------------------------------|
Bb|-------------------------------------------------|
Gb|-------------------------------------------------|
Db|--2--2--2--2--2--2--2--2--3--3--3--3--5--5--5--5-|
Ab|--2--2--2--2--2--2--2--2--3--3--3--3--5--5--5--5-|
Eb|--0--0--0--0--0--0--0--0--1--1--1--1--3--3--3--3-|
  |
  |GTR II
eb|-------------------------------------------------|
Bb|-------------------------------------------------|
Gb|--9--9--9--9--9--9--7--9-10-----9-10-12-12-12-12-|
Db|--x--x--x--x--x--x--x--x--x-----x--x--x--x--x--x-|
Ab|--7--7--7--7--7--7--5--7--8-----7--8-10-10-10-10-|
Eb|-------------------------------------------------|

   GTR I
eb|-------------------------------------------------|
Bb|-------------------------------------------------|
Gb|-------------------------------------------------|
Db|--7--7--7--7--7--7--7--7--3--3--3--3--5--5--5--5-|
Ab|--7--7--7--7--7--7--7--7--3--3--3--3--5--5--5--5-|
Eb|--5--5--5--5--5--5--5--5--1--1--1--1--3--3--3--3-|
  |
  |GTR II
eb|-------------------------------------------------|
Bb|-------------------------------------------------|
Gb|--------9--9-10-10-12-12--5--5--5--7--7--7--7--7-|
Db|--------x--x--x--x--x--x--x--x--x--x--x--x--x--x-|
Ab|--------7--7--8--8-10-10--3--3--3--5--5--5--5--5-|
Eb|-------------------------------------------------|

   GTR I
eb|-------------------------------------------------|
Bb|-------------------------------------------------|
Gb|-------------------------------------------------|
Db|--7--7--7--7--7--7--7--7--3--3--3--3--5--5--5--5-|
Ab|--7--7--7--7--7--7--7--7--3--3--3--3--5--5--5--5-|
Eb|--5--5--5--5--5--5--5--5--1--1--1--1--3--3--3--3-|
  |
  |GTR II
eb|-------------------------------------------------|
Bb|-------------------------------------------------|
Gb|--------9--9-10-10-12-12--5--5--5--7--4--4--4--4-|
Db|--------x--x--x--x--x--x--x--x--x--x--x--x--x--x-|
Ab|--------7--7--8--8-10-10--3--3--3--5--2--2--2--2-|
Eb|-------------------------------------------------|

   GTR I
eb|-------------------------------------------------|
Bb|-------------------------------------------------|
Gb|-------------------------------------------------|
Db|--7--7--7--7--7--7--7--7--3--3--3--3--5--5--5--5-|
Ab|--7--7--7--7--7--7--7--7--3--3--3--3--5--5--5--5-|
Eb|--5--5--5--5--5--5--5--5--1--1--1--1--3--3--3--3-|
  |
  |GTR II
eb|-------------------------------------------------|
Bb|-------------------------------------------------|
Gb|--------9--9-10-10-12-12--5--5--5--7--7--7--7--7-|
Db|--------x--x--x--x--x--x--x--x--x--x--x--x--x--x-|
Ab|--------7--7--8--8-10-10--3--3--3--5--5--5--5--5-|
Eb|-------------------------------------------------|

   GTR I
eb|-------------------------------------------------|
Bb|-------------------------------------------------|
Gb|-------------------------------------------------|
Db|--2--2--2--2--2--2--2--2--3--3--3--3--5--5--5--5-|
Ab|--2--2--2--2--2--2--2--2--3--3--3--3--5--5--5--5-|
Eb|--0--0--0--0--0--0--0--0--1--1--1--1--3--3--3--3-|
  |
  |GTR II
eb|-------------------------------------------------|
Bb|-------------------------------------------------|
Gb|--9--9--9--9--9--9--7--9-10-----9-10-12-12-12-12-|
Db|--x--x--x--x--x--x--x--x--x-----x--x--x--x--x--x-|
Ab|--7--7--7--7--7--7--5--7--8-----7--8-10-10-10-10-|
Eb|-------------------------------------------------|

Verse

   GTR I
eb|-------------|-------------|-------------------------|
Bb|-------------|-------------|-------------------------|
Gb|-------------|-------------|-------------------------|
Db|--7----------|-------------|-------------------------|
Ab|--7----------|-------------|--------------Pksd-------|
Eb|--5----------|-------------|--------------Pksd-------|
  |
  |GTR II
eb|-------------|-------------|-------------------------|
Bb|-------------|-------------|-------------------------|
Gb|-------------|-------------|-------------------------|
Db|-------------|-------------|-------------------------|
Ab|-------------|-------------|--------------------Pksd-|
Eb|-------------|-------------|--------------------Pksd-|

   GTR I
eb|-------------------------------------------------|
Bb|-------------------------------------------------|
Gb|-------------------------------------------------|
Db|--2--2--2--2--2--2--2--2--3--3--3--3--5--5--5--5-|
Ab|--2--2--2--2--2--2--2--2--3--3--3--3--5--5--5--5-|
Eb|--0--0--0--0--0--0--0--0--1--1--1--1--3--3--3--3-|
  |
  |GTR II
eb|-------------------------------------------------|
Bb|-------------------------------------------------|
Gb|--9--9--9--9--9--9--9--9-10-10-10-10-12-12-12-12-|
Db|--x--x--x--x--x--x--x--x--x--x--x--x--x--x--x--x-|
Ab|--7--7--7--7--7--7--7--7--8--8--8--8-10-10-10-10-|
Eb|-------------------------------------------------|

Verse 2

   GTR I
eb|-------------------------------------------------|
Bb|-------------------------------------------------|
Gb|-------------------------------------------------|
Db|--7----------------------------------------------|
Ab|--7----------------------------------------------|
Eb|--5----------------------------------------------|
  |
  |GTR II
eb|-------------------------------------------------|
Bb|-------------------------------------------------|
Gb|--------------------------5--5--5--4--4----------|
Db|--7--7--7--5--7--7--7--5-----------------7--7--5-|
Ab|-------------------------------------------------|
Eb|-------------------------------------------------|
     .  .  .  .  .  .  .  .  .  .  .  .  .  .  .  .

   GTR II
eb|-------------------------------------------------|
Bb|-------------------------------------------------|
Gb|--------------------------5--5--5--4--4--7--7----|
Db|--7--7--7--5--7--7--7--5-----------------------5-|
Ab|-------------------------------------------------|
Eb|-------------------------------------------------|
     .  .  .  .  .  .  .  .  .  .  .  .  .  .  .  .

   GTR II
eb|-------------------------------------------------|
Bb|-------------------------------------------------|
Gb|--------------------------5--5--5--4--4----------|
Db|--7--7--7--5--7--7--7--5-----------------7--7--5-|
Ab|-------------------------------------------------|
Eb|-------------------------------------------------|
     .  .  .  .  .  .  .  .  .  .  .  .  .  .  .  .

   GTR I
eb|-------------------------------------------------|
Bb|-------------------------------------------------|
Gb|-------------------------------------------------|
Db|--2--2--2--2--2--2--2--2--3--3--3--3--5--5--5--5-|
Ab|--2--2--2--2--2--2--2--2--3--3--3--3--5--5--5--5-|
Eb|--0--0--0--0--0--0--0--0--1--1--1--1--3--3--3--3-|
  |
  |GTR II
eb|-------------------------------------------------|
Bb|-------------------------------------------------|
Gb|--9--9--9--9--9--9--9--9-10-10-10-10-12-12-12-12-|
Db|--x--x--x--x--x--x--x--x--x--x--x--x--x--x--x--x-|
Ab|--7--7--7--7--7--7--7--7--8--8--8--8-10-10-10-10-|
Eb|-------------------------------------------------|

Chorus

   GTR I,II
eb|-------------------------------------------------|
Bb|-------------------------------------------------|
Gb|-------------------------------------------------|
Db|--7--7--7--7--7--7--7--7--3--3--3--3--3--3--3--3-|
Ab|--7--7--7--7--7--7--7--7--3--3--3--3--3--3--3--3-|
Eb|--5--5--5--5--5--5--5--5--1--1--1--1--1--1--1--1-|

   GTR I,II
eb|-------------------------------------------------|
Bb|-------------------------------------------------|
Gb|--5--5--5--5--5--5--5--5-------------------------|
Db|--5--5--5--5--5--5--5--5--5--5--5--5--5--5--5--5-|
Ab|--3--3--3--3--3--3--3--3--5--5--5--5--5--5--5--5-|
Eb|--------------------------3--3--3--3--3--3--3--3-|

   GTR I,II
eb|-------------------------------------------------|
Bb|-------------------------------------------------|
Gb|-------------------------------------------------|
Db|--7--7--7--7--7--7--7--7--3--3--3--3--3--3--3--3-|
Ab|--7--7--7--7--7--7--7--7--3--3--3--3--3--3--3--3-|
Eb|--5--5--5--5--5--5--5--5--1--1--1--1--1--1--1--1-|

   GTR I
eb|-------------------------------------------------|
Bb|-------------------------------------------------|
Gb|--5--5--5--5--5--5--5--5-------------------------|
Db|--5--5--5--5--5--5--5--5--2--2--2--2--3--3--2--2-|
Ab|--3--3--3--3--3--3--3--3--2--2--2--2--3--3--2--2-|
Eb|--------------------------0--0--0--0--1--1--0--0-|
  |
  |GTR II
eb|-------------------------------------------------|
Bb|-------------------------------------------------|
Gb|--5--5--5--5--5--5--5--5--9--9--7--9-10-----9----|
Db|--5--5--5--5--5--5--5--5--x--x--x--x--x-----x----|
Ab|--3--3--3--3--3--3--3--3--7--7--5--7--8-----7----|
Eb|-------------------------------------------------|

   GTR I,II
eb|-------------------------------------------------|
Bb|-------------------------------------------------|
Gb|-------------------------------------------------|
Db|--7--7--7--7--7--7--7--7--3--3--3--3--3--3--3--3-|
Ab|--7--7--7--7--7--7--7--7--3--3--3--3--3--3--3--3-|
Eb|--5--5--5--5--5--5--5--5--1--1--1--1--1--1--1--1-|

   GTR I,II
eb|-------------------------------------------------|
Bb|-------------------------------------------------|
Gb|--5--5--5--5--5--5--5--5-------------------------|
Db|--5--5--5--5--5--5--5--5--5--5--5--5--5--5--5--5-|
Ab|--3--3--3--3--3--3--3--3--5--5--5--5--5--5--5--5-|
Eb|--------------------------3--3--3--3--3--3--3--3-|

   GTR I,II
eb|-------------------------------------------------|
Bb|-------------------------------------------------|
Gb|-------------------------------------------------|
Db|--7--7--7--7--7--7--7--7--3--3--3--3--3--3--3--3-|
Ab|--7--7--7--7--7--7--7--7--3--3--3--3--3--3--3--3-|
Eb|--5--5--5--5--5--5--5--5--1--1--1--1--1--1--1--1-|

   GTR I
eb|-------------------------------------------------|
Bb|-------------------------------------------------|
Gb|--5--5--5--5--5--5--5--5-------------------------|
Db|--5--5--5--5--5--5--5--5--2--2--2--2--3--3--2--2-|
Ab|--3--3--3--3--3--3--3--3--2--2--2--2--3--3--2--2-|
Eb|--------------------------0--0--0--0--1--1--0--0-|
  |
  |GTR II
eb|-------------------------------------------------|
Bb|-------------------------------------------------|
Gb|--5--5--5--5--5--5--5--5--9--9--7--9-10-----9----|
Db|--5--5--5--5--5--5--5--5--x--x--x--x--x-----x----|
Ab|--3--3--3--3--3--3--3--3--7--7--5--7--8-----7----|
Eb|-------------------------------------------------|

Verse
Verse 2
Chorus

Bridge

   GTR I
eb|-------------|-------------|-------------|-------------|-------------|
Bb|-------------|-------------|-------------|-------------|-------------|
Gb|-------------|-------------|-------------|-------------|-------------|
Db|--7----------|-------------|----BASS-----|----BASS-----|----BASS-----|
Ab|--7----------|-------------|-------------|-------------|-------------|
Eb|--5----------|-------------|-------------|-------------|-------------|

   GTR I,II
eb|-------------|-------------|-------------|-------------|-------------|
Bb|-------------|-------------|-------------|-------------|-------------|
Gb|-------------|-------------|-------------|-------------|-------------|
Db|----BASS-----|----BASS-----|----BASS-----|----BASS-----|---FEEDBACK--|
Ab|-------------|-------------|-------------|-------------|-------------|
Eb|-------------|-------------|-------------|-------------|-------------|

Interlude

   GTR I
eb|-------------------------------------------------|
Bb|-------------------------------------------------|
Gb|-------------------------------------------------|
Db|--7--7--7--7--7--7--7--7--7--7--7--7--7--7--7--7-|
Ab|--7--7--7--7--7--7--7--7--7--7--7--7--7--7--7--7-|
Eb|--5--5--5--5--5--5--5--5--5--5--5--5--5--5--5--5-|
  |
  |GTR II
eb|-------------------------------------------------|
Bb|-------------------------------------------------|
Gb|-------------------------------------------------|
Db|--7--7--7--7--7--7--7--7--9--9--9--9-10-10-10-10-|
Ab|--x--x--x--x--x--x--x--x--x--x--x--x--x--x--x--x-|
Eb|--5--5--5--5--5--5--5--5--7--7--7--7--8--8--8--8-|

   GTR I
eb|-------------------------------------------------|
Bb|-------------------------------------------------|
Gb|-------------------------------------------------|
Db|--7--7--7--7--7--7--7--7--7--7--7--7--7--7--7--7-|
Ab|--7--7--7--7--7--7--7--7--7--7--7--7--7--7--7--7-|
Eb|--5--5--5--5--5--5--5--5--5--5--5--5--5--5--5--5-|
  |
  |GTR II
eb|-------------------------------------------------|
Bb|-------------------------------------------------|
Gb|-------------------------------------------------|
Db|--7--7--7--7--7--7--7--7--9--9--9--9-10-10-10-10-|
Ab|--x--x--x--x--x--x--x--x--x--x--x--x--x--x--x--x-|
Eb|--5--5--5--5--5--5--5--5--7--7--7--7--8--8--8--8-|

   GTR I
eb|-------------------------------------------------|
Bb|-------------------------------------------------|
Gb|--7--7--7--7--7--7--7--7--7--7--7--7--7--7--7--7-|
Db|--7--7--7--7--7--7--7--7--7--7--7--7--7--7--7--7-|
Ab|--5--5--5--5--5--5--5--5--5--5--5--5--5--5--5--5-|
Eb|-------------------------------------------------|
  |
  |GTR II
eb|-------------------------------------------------|
Bb|-------------------------------------------------|
Gb|-10-10-10-10-10-10-10-10--9--9--9--9--9--9--9--9-|
Db|--x--x--x--x--x--x--x--x--x--x--x--x--x--x--x--x-|
Ab|--8--8--8--8--8--8--8--8--7--7--7--7--7--7--7--7-|
Eb|-------------------------------------------------|

   GTR I
eb|-------------------------------------------------|
Bb|-------------------------------------------------|
Gb|--7--7--7--7--7--7--7--7--7--7--7--7--7--7--7--7-|
Db|--7--7--7--7--7--7--7--7--7--7--7--7--7--7--7--7-|
Ab|--5--5--5--5--5--5--5--5--5--5--5--5--5--5--5--5-|
Eb|-------------------------------------------------|
  |
  |GTR II
eb|-------------------------------------------------|
Bb|-------------------------------------------------|
Gb|--7--7--7--7--7--7--7--7--7--7--7--7--7--7--7--7-|
Db|--x--x--x--x--x--x--x--x--x--x--x--x--x--x--x--x-|
Ab|--5--5--5--5--5--5--5--5--5--5--5--5--5--5--5--5-|
Eb|-------------------------------------------------|

   GTR I
eb|-------------------------------------------------|
Bb|-------------------------------------------------|
Gb|-------------------------------------------------|
Db|--7--7--7--7--7--7--7--7--7--7--7--7--7--7--7--7-|
Ab|--7--7--7--7--7--7--7--7--7--7--7--7--7--7--7--7-|
Eb|--5--5--5--5--5--5--5--5--5--5--5--5--5--5--5--5-|
  |
  |GTR II
eb|-------------------------------------------------|
Bb|-------------------------------------------------|
Gb|-------------------------------------------------|
Db|--7--7--7--7--7--7--7--7--9--9--9--9-10-10-10-10-|
Ab|--x--x--x--x--x--x--x--x--x--x--x--x--x--x--x--x-|
Eb|--5--5--5--5--5--5--5--5--7--7--7--7--8--8--8--8-|

   GTR I
eb|-------------------------------------------------|
Bb|-------------------------------------------------|
Gb|-------------------------------------------------|
Db|--7--7--7--7--7--7--7--7--7--7--7--7--7--7--7--7-|
Ab|--7--7--7--7--7--7--7--7--7--7--7--7--7--7--7--7-|
Eb|--5--5--5--5--5--5--5--5--5--5--5--5--5--5--5--5-|
  |
  |GTR II
eb|-------------------------------------------------|
Bb|-------------------------------------------------|
Gb|-------------------------------------------------|
Db|--7--7--7--7--7--7--7--7--9--9--9--9-10-10-10-10-|
Ab|--x--x--x--x--x--x--x--x--x--x--x--x--x--x--x--x-|
Eb|--5--5--5--5--5--5--5--5--7--7--7--7--8--8--8--8-|

   GTR I
eb|-------------------------------------------------|
Bb|-------------------------------------------------|
Gb|--7--7--7--7--7--7--7--7--7--7--7--7--7--7--7--7-|
Db|--7--7--7--7--7--7--7--7--7--7--7--7--7--7--7--7-|
Ab|--5--5--5--5--5--5--5--5--5--5--5--5--5--5--5--5-|
Eb|-------------------------------------------------|
  |
  |GTR II
eb|-------------------------------------------------|
Bb|-------------------------------------------------|
Gb|-10-10-10-10-10-10-10-10--9--9--9--9--9--9--9--9-|
Db|--x--x--x--x--x--x--x--x--x--x--x--x--x--x--x--x-|
Ab|--8--8--8--8--8--8--8--8--7--7--7--7--7--7--7--7-|
Eb|-------------------------------------------------|

   GTR I
eb|-------------------------------------------------|
Bb|-------------------------------------------------|
Gb|--7--7--7--7--7--7--7--7--7--7--7--7--7--7--7--7-|
Db|--7--7--7--7--7--7--7--7--7--7--7--7--7--7--7--7-|
Ab|--5--5--5--5--5--5--5--5--5--5--5--5--5--5--5--5-|
Eb|-------------------------------------------------|
  |
  |GTR II
eb|-------------------------------------------------|
Bb|-------------------------------------------------|
Gb|--7--7--7--7--7--7--7--7--7--7--7--7--7--7--7--7-|
Db|--x--x--x--x--x--x--x--x--x--x--x--x--x--x--x--x-|
Ab|--5--5--5--5--5--5--5--5--5--5--5--5--5--5--5--5-|
Eb|-------------------------------------------------|

Interlude 2

   GTR I
eb|-------------------------------------------------|
Bb|-------------------------------------------------|
Gb|-------------------------------------------------|
Db|--7--7--7--7--7--7--7--7--7--7--7--7--7--7--7--7-|
Ab|--7--7--7--7--7--7--7--7--7--7--7--7--7--7--7--7-|
Eb|--5--5--5--5--5--5--5--5--5--5--5--5--5--5--5--5-|
  |
  |GTR II
eb|-------------------------------------------------|
Bb|-------------------------------------------------|
Gb|-14-14-14-14-14-14-14-14-17-17-17-16-16-16-14-14-|
Db|--x--x--x--x--x--x--x--x--x--x--x--x--x--x--x--x-|
Ab|-12-12-12-12-12-12-12-12-15-15-15-14-14-14-12-12-|
Eb|-------------------------------------------------|

   GTR I
eb|-------------------------------------------------|
Bb|-------------------------------------------------|
Gb|-------------------------------------------------|
Db|--7--7--7--7--7--7--7--7--7--7--7--7--7--7--7--7-|
Ab|--7--7--7--7--7--7--7--7--7--7--7--7--7--7--7--7-|
Eb|--5--5--5--5--5--5--5--5--5--5--5--5--5--5--5--5-|
  |
  |GTR II
eb|-------------------------------------------------|
Bb|-------------------------------------------------|
Gb|-14-14-14-14-14-14-14-14-17-17-17-16-16-16-17-17-|
Db|--x--x--x--x--x--x--x--x--x--x--x--x--x--x--x--x-|
Ab|-12-12-12-12-12-12-12-12-15-15-15-14-14-14-15-15-|
Eb|-------------------------------------------------|

   GTR I
eb|-------------------------------------------------|
Bb|-------------------------------------------------|
Gb|--7--7--7--7--7--7--7--7--7--7--7--7--7--7--7--7-|
Db|--7--7--7--7--7--7--7--7--7--7--7--7--7--7--7--7-|
Ab|--5--5--5--5--5--5--5--5--5--5--5--5--5--5--5--5-|
Eb|-------------------------------------------------|
  |
  |GTR II
eb|-------------------------------------------------|
Bb|-------------------------------------------------|
Gb|-19-19-19-19-19-19-19-19-17-17-17-16-16-16-17-17-|
Db|--x--x--x--x--x--x--x--x--x--x--x--x--x--x--x--x-|
Ab|-17-17-17-17-17-17-17-17-15-15-15-14-14-14-15-15-|
Eb|-------------------------------------------------|

   GTR I
eb|-------------------------------------------------|
Bb|-------------------------------------------------|
Gb|--7--7--7--7--7--7--7--7--7--7--7--7--7--7--7--7-|
Db|--7--7--7--7--7--7--7--7--7--7--7--7--7--7--7--7-|
Ab|--5--5--5--5--5--5--5--5--5--5--5--5--5--5--5--5-|
Eb|-------------------------------------------------|
  |
  |GTR II
eb|-------------------------------------------------|
Bb|-------------------------------------------------|
Gb|-19-19-19-19-19-19-19-19-17-17-17-16-16-16-17-17-|
Db|--x--x--x--x--x--x--x--x--x--x--x--x--x--x--x--x-|
Ab|-17-17-17-17-17-17-17-17-15-15-15-14-14-14-15-15-|
Eb|-------------------------------------------------|

   GTR I
eb|-------------------------------------------------|
Bb|-------------------------------------------------|
Gb|-------------------------------------------------|
Db|--7--7--7--7--7--7--7--7--7--7--7--7--7--7--7--7-|
Ab|--7--7--7--7--7--7--7--7--7--7--7--7--7--7--7--7-|
Eb|--5--5--5--5--5--5--5--5--5--5--5--5--5--5--5--5-|
  |
  |GTR II
eb|-------------------------------------------------|
Bb|-------------------------------------------------|
Gb|-14-14-14-14-14-14-14-14-17-17-17-16-16-16-14-14-|
Db|--x--x--x--x--x--x--x--x--x--x--x--x--x--x--x--x-|
Ab|-12-12-12-12-12-12-12-12-15-15-15-14-14-14-12-12-|
Eb|-------------------------------------------------|

   GTR I
eb|-------------------------------------------------|
Bb|-------------------------------------------------|
Gb|-------------------------------------------------|
Db|--7--7--7--7--7--7--7--7--7--7--7--7--7--7--7--7-|
Ab|--7--7--7--7--7--7--7--7--7--7--7--7--7--7--7--7-|
Eb|--5--5--5--5--5--5--5--5--5--5--5--5--5--5--5--5-|
  |
  |GTR II
eb|-------------------------------------------------|
Bb|-------------------------------------------------|
Gb|-14-14-14-14-14-14-14-14-17-17-17-16-16-16-17-17-|
Db|--x--x--x--x--x--x--x--x--x--x--x--x--x--x--x--x-|
Ab|-12-12-12-12-12-12-12-12-15-15-15-14-14-14-15-15-|
Eb|-------------------------------------------------|

   GTR I
eb|-------------------------------------------------|
Bb|-------------------------------------------------|
Gb|--7--7--7--7--7--7--7--7--7--7--7--7--7--7--7--7-|
Db|--7--7--7--7--7--7--7--7--7--7--7--7--7--7--7--7-|
Ab|--5--5--5--5--5--5--5--5--5--5--5--5--5--5--5--5-|
Eb|-------------------------------------------------|
  |
  |GTR II
eb|-------------------------------------------------|
Bb|-------------------------------------------------|
Gb|-19-19-19-19-19-19-19-19-17-17-17-16-16-16-17-17-|
Db|--x--x--x--x--x--x--x--x--x--x--x--x--x--x--x--x-|
Ab|-17-17-17-17-17-17-17-17-15-15-15-14-14-14-15-15-|
Eb|-------------------------------------------------|

   GTR I,II
eb|-------------------------------------------------|
Bb|-------------------------------------------------|
Gb|-10-10-10-10-10-10-10-10-10----------------------|
Db|-10-10-10-10-10-10-10-10-10----------------------|
Ab|--8--8--8--8--8--8--8--8--8----------------------|
Eb|--8--8--8--8--8--8--8--8--8----------------------|

Outro Chorus

   GTR I,II
eb|-------------------------------------------------|
Bb|-------------------------------------------------|
Gb|-------------------------------------------------|
Db|--7--7--7--7--7--7--7--7--3--3--3--3--3--3--3--3-|
Ab|--7--7--7--7--7--7--7--7--3--3--3--3--3--3--3--3-|
Eb|--5--5--5--5--5--5--5--5--1--1--1--1--1--1--1--1-|

   GTR I,II
eb|-------------------------------------------------|
Bb|-------------------------------------------------|
Gb|--5--5--5--5--5--5--5--5-------------------------|
Db|--5--5--5--5--5--5--5--5--5--5--5--5--5--5--5--5-|
Ab|--3--3--3--3--3--3--3--3--5--5--5--5--5--5--5--5-|
Eb|--------------------------3--3--3--3--3--3--3--3-|

   GTR I,II
eb|-------------------------------------------------|
Bb|-------------------------------------------------|
Gb|-------------------------------------------------|
Db|--7--7--7--7--7--7--7--7--3--3--3--3--3--3--3--3-|
Ab|--7--7--7--7--7--7--7--7--3--3--3--3--3--3--3--3-|
Eb|--5--5--5--5--5--5--5--5--1--1--1--1--1--1--1--1-|

   GTR I
eb|-------------------------------------------------|
Bb|-------------------------------------------------|
Gb|--5--5--5--5--5--5--5--5-------------------------|
Db|--5--5--5--5--5--5--5--5--2--2--2--2--3--3--2--2-|
Ab|--3--3--3--3--3--3--3--3--2--2--2--2--3--3--2--2-|
Eb|--------------------------0--0--0--0--1--1--0--0-|
  |
  |GTR II
eb|-------------------------------------------------|
Bb|-------------------------------------------------|
Gb|--5--5--5--5--5--5--5--5--9--9--7--9-10-----9----|
Db|--5--5--5--5--5--5--5--5--x--x--x--x--x-----x----|
Ab|--3--3--3--3--3--3--3--3--7--7--5--7--8-----7----|
Eb|-------------------------------------------------|

   GTR I
eb|-------------------------------------------------|
Bb|-------------------------------------------------|
Gb|-------------------------------------------------|
Db|--7--7--7--7--7--7--7--7--3--3--3--3--3--3--3--3-|
Ab|--7--7--7--7--7--7--7--7--3--3--3--3--3--3--3--3-|
Eb|--5--5--5--5--5--5--5--5--1--1--1--1--1--1--1--1-|
  |
  |GTR II
eb|-------------------------------------------------|
Bb|-------------------------------------------------|
Gb|--------------------------9--9--7--9-10-----9----|
Db|--7--7--7--7--7--7--7--7--x--x--x--x--x-----x----|
Ab|--7--7--7--7--7--7--7--7--7--7--5--7--8-----7----|
Eb|--5--5--5--5--5--5--5--5-------------------------|

   GTR I
eb|-------------------------------------------------|
Bb|-------------------------------------------------|
Gb|--5--5--5--5--5--5--5--5-------------------------|
Db|--5--5--5--5--5--5--5--5--5--5--5--5--5--5--5--5-|
Ab|--3--3--3--3--3--3--3--3--5--5--5--5--5--5--5--5-|
Eb|--------------------------3--3--3--3--3--3--3--3-|
  |
  |GTR II
eb|-------------------------------------------------|
Bb|-------------------------------------------------|
Gb|--5--5--5--5--5--5--5--5--9--9--7--9-10-----9----|
Db|--5--5--5--5--5--5--5--5--x--x--x--x--x-----x----|
Ab|--3--3--3--3--3--3--3--3--7--7--5--7--8-----7----|
Eb|-------------------------------------------------|

   GTR I
eb|-------------------------------------------------|
Bb|-------------------------------------------------|
Gb|-------------------------------------------------|
Db|--7--7--7--7--7--7--7--7--3--3--3--3--3--3--3--3-|
Ab|--7--7--7--7--7--7--7--7--3--3--3--3--3--3--3--3-|
Eb|--5--5--5--5--5--5--5--5--1--1--1--1--1--1--1--1-|
  |
  |GTR II
eb|-------------------------------------------------|
Bb|-------------------------------------------------|
Gb|--------------------------9--9--7--9-10-----9----|
Db|--7--7--7--7--7--7--7--7--x--x--x--x--x-----x----|
Ab|--7--7--7--7--7--7--7--7--7--7--5--7--8-----7----|
Eb|--5--5--5--5--5--5--5--5-------------------------|

   GTR I
eb|-------------------------------------------------|
Bb|-------------------------------------------------|
Gb|--5--5--5--5--5--5--5--5-------------------------|
Db|--5--5--5--5--5--5--5--5--2--2--2--2--3--3--2--2-|
Ab|--3--3--3--3--3--3--3--3--2--2--2--2--3--3--2--2-|
Eb|--------------------------0--0--0--0--1--1--0--0-|
  |
  |GTR II
eb|-------------------------------------------------|
Bb|-------------------------------------------------|
Gb|--5--5--5--5--5--5--5--5--9--9--7--9-10-----9----|
Db|--5--5--5--5--5--5--5--5--x--x--x--x--x-----x----|
Ab|--3--3--3--3--3--3--3--3--7--7--5--7--8-----7----|
Eb|-------------------------------------------------|

   GTR I
eb|-------------------------------------------------|
Bb|-------------------------------------------------|
Gb|-------------------------------------------------|
Db|--7----------------------------------------------|
Ab|--7----------------------------------------------|
Eb|--5----------------------------------------------|
  |
  |GTR II
eb|-------------------------------------------------|
Bb|-------------------------------------------------|
Gb|-14----------------------------------------------|
Db|--x----------------------------------------------|
Ab|-12----------------------------------------------|
Eb|-------------------------------------------------|


| b  bend
| r  release bend
|trp triplet
|PH. pinch harmonic
|fbk feedback
| .  palm-mute
| /  slide up
| \  slide down
| h  hammer-on
| p  pull-off
| ~  vibrato
|(7) harmonic
| x  Mute note
===============================================================================
Tap to rate this tab
 
# A B C D E F G H I J K L M N O P Q R S T U V W X Y Z