Song name
# A B C D E F G H I J K L M N O P Q R S T U V W X Y Z

Rise Against - Torches tab

Song: Torches
Artist: Rise Against
Album: Revolutions Per Minute
Year: 2003

Tuning: Eb

Opening Part 1:
   Guitar 1:
eb|---------------------------------------------------------------------------|
Bb|---------------------------------------------------------------------------|
Gb|---------------------------------------------------------------------------|
Db|----10--10-9--10--9----5-5/7---------10--10-9--10--9---9-9-\7-------------|
Ab|----12--12-10-12--10---7-7/8---------12--12-10-12--10--10-10\8-------------|
Eb|---------------------------------------------------------------------------|
  |
  |Guitar 2:
eb|---------------------------------------------------------------------------|
Bb|-----------------------3h5-----------------------3p1-----------------------|
Gb|---------------------------------------------------------------------------|
Db|-7-7---------------------------7-7-----------------------------------------|
Ab|-7-7---------------------------7-7-----------------------------------------|
Eb|-5-5---------------------------5-5-----------------------------------------|

   Guitar 1:
eb|---------------------------------------------------------------------------|
Bb|---------------------------------------------------------------------------|
Gb|--------------------------------5--5-5--5-5-5--7--7-7--7-7-7---------------|
Db|----10--10-9--10--9----5-5/7----5--5-5--5-5-5--7-7-7--7-7-7---------------|
Ab|----12--12-10-12--10---7-7/8----3--3-3--3-3-3--5--5-5--5-5-5---------------|
Eb|---------------------------------------------------------------------------|
  |
  |Guitar 2:
eb|---------------------------------------------------------------------------|
Bb|-----------------------3h5-------------------------------------------------|
Gb|--------------------------------5--5-5--5-5-5--7--7-7--7-7-7---------------|
Db|-7-7----------------------------5-5-5--5-5-5--7--7-7--7-7-7---------------|
Ab|-7-7----------------------------3--3-3--3-3-3--5--5-5--5-5-5---------------|
Eb|-5-5-----------------------------------------------------------------------|

Opening Part 2:
   Guitar 1:
eb|---------------------------------------------------------------------------|
Bb|---------------------------------------------------------------------------|
Gb|---------------------------------------------------------------------------|
Db|----10--10-9--10--9----5-5/7---------10--10-9--10--9---9-9-\7-------------|
Ab|----12--12-10-12--10---7-7/8---------12--12-10-12--10--10-10\8-------------|
Eb|---------------------------------------------------------------------------|\
                                                                                >x2
eb|---------------------------------------------------------------------------|/
Bb|---------------------------------------------------------------------------|
Gb|-------------------------------5--5-5--5-5-5--7--7-7--7-7-7----------------|
Db|----10--10-9--10--9---5-5/7----5--5-5--5-5-5--7--7-7--7-7-7----------------|
Ab|----12--12-10-12--10--7-7/8----3--3-3--3-3-3--5--5-5--5-5-5----------------|
Eb|---------------------------------------------------------------------------|

   Guitar 2:
eb|---------------------------------------------------|
Bb|---------------------------------------------------|
Gb|---------------------------------------------------|
Db|-777777777777777777777777777777777777777777777777--|
Ab|-777777777777777777777777777777777777777777777777--|
Eb|-555555555555555555555555555555555555555555555555--|\
                                                        >x2
eb|---------------------------------------------------|/
Bb|---------------------------------------------------|
Gb|-5--5-5--5-5-5--7--7-7--7-7-7----------------------|
Db|-5--5-5--5-5-5--7--7-7--7-7-7----------------------|
Ab|-3--3-3--3-3-3--5--5-5--5-5-5----------------------|
Eb|---------------------------------------------------|

Verse 1:
   Both Guitars:
eb|---------------------------------------------------------------------------|
Bb|---------------------------------------------------------------------------|
Gb|------------------55555555-------------------------------------------------|
Db|-7777777777777777-55555555-55555555--7777777777777777-33333333-55555555----|
Ab|-7777777777777777-33333333-55555555--7777777777777777-33333333-55555555----|
Eb|-5555555555555555----------33333333--5555555555555555-11111111-33333333----|x2
    **************** ******** ********  **************** ******** ********

Chorus:
   Both Guitars:
eb|---------------------------------------------------------------------------|
Bb|---------------------------------------------------------------------------|
Gb|--5----4-----------7----5----4-4-------------------------------------------|
Db|--5----4----5-5-5--7----5----4-4-5------7--7--7-7-7-7--7--7-7-7------------|
Ab|--3----2----5-5-5--5----3----2-2-5------7--7--7-7-7-7--7--7-7-7------------|
Eb|------------3-3-3----------------3------5--5--5-5-5-5--5--5-5-5------------|

eb|---------------------------------------------------------------------------|
Bb|---------------------------------------------------------------------------|
Gb|--5----4-----------7----5----7-7-11----------------------------------------|
Db|--5----4----5-5-5--7----5----7-7-11---7----7--7-7-7-7--7--7-7-7------------|
Ab|--3----2----5-5-5--5----3----5-5-9----7----7--7-7-7-7--7--7-7-7------------|
Eb|------------3-3-3---------------------5----5--5-5-5-5--5--5-5-5------------|

eb|---------------------------------------------------------------------------|
Bb|---------------------------------------------------------------------------|
Gb|--5----4-----------7----5----4-4-------------------------------------------|
Db|--5----4----5-5-5--7----5----4-4-5------7--7--7-7-7-7--7--7-7-7------------|
Ab|--3----2----5-5-5--5----3----2-2-5------7--7--7-7-7-7--7--7-7-7------------|
Eb|------------3-3-3----------------3------5--5--5-5-5-5--5--5-5-5------------|

eb|---------------------------------------------------------------------------|
Bb|---------------------------------------------------------------------------|
Gb|--5----4-----------7----5----7-7-11------------------------5---------------|
Db|--5----4----5-5-5--7----5----7-7-11---7----7--77777777--3--5--5------------|
Ab|--3----2----5-5-5--5----3----5-5-9----7----7--77777777--3--3--5------------|
Eb|------------3-3-3---------------------5----5--55555555--1-----3------------|

Verse 2:
   Both Guitars:
eb|---------------------------------------------------------------------------|
Bb|---------------------------------------------------------------------------|
Gb|------------------55555555-------------------------------------------------|
Db|-7777777777777777-55555555-55555555--7777777777777777-33333333-55555555----|
Ab|-7777777777777777-33333333-55555555--7777777777777777-33333333-55555555----|
Eb|-5555555555555555----------33333333--5555555555555555-11111111-33333333----|x2

Bridge Part 1:
   Guitar 1:
eb|---------------------------------------------------------------------------|
Bb|---------------------------------------------------------------------------|
Gb|-----------------5-5-5-----------------5-5-5-----------------555444--------|
Db|----7-7-7-7-7----5-5-5----5-5-5-5-5----5-5-5----7-7-7-7-7----555444--x--5--|
Ab|----7-7-7-7-7----3-3-3----5-5-5-5-5----3-3-3----7-7-7-7-7----333222--x--5--|
Eb|----5-5-5-5-5-------------3-3-3-3-3-------------5-5-5-5-5------------x--3--|\
  |                                                                             \ x2
  |Guitar 2:                                                                    /
eb|---------------------------------------------------------------------------|/
Bb|----3131313131313131313131313131313131313131313131313131313131313131-------|
Gb|---------------------------------------------------------------------------|
Db|------------------------------------------------------------------------5--|
Ab|------------------------------------------------------------------------5--|
Eb|------------------------------------------------------------------------5--|

Bridge Part 2:
   Both Guitars:
eb|---------------------------------------------------------------------------|
Bb|---------------------------------------------------------------------------|
Gb|------------555-------------555-------------555-444------------------------|
Db|-77-777-777-555-555-555-555-555-777-777-777-555-444--x-5-------------------|
Ab|-77-777-777-333-555-555-555-333-777-777-777-333-222--x-5-------------------|
Eb|-55-555-555-----333-333-333-----555-555-555----------x-3-------------------|x2

Bridge Part 3:
   Guitar 1:
eb|-----------------------------------|
Bb|----7--5--4-----------7--5--4--5---|
Gb|-------------5---------------------|
Db|-----------------------------------|
Ab|-----------------------------------|
Eb|-----------------------------------|\
  |                                     \4x
  |Guitar 2:                            /
eb|-----------------------------------|/
Bb|-----------------------------------|
Gb|----------16-----------------------|
Db|-------------17-------------17-16--|
Ab|-----------------------------------|
Eb|-----------------------------------|

Outro Part 1:
   Both Guitars:
eb|---------------------------------------------------------------------------|
Bb|---------------------------------------------------------------------------|
Gb|--5----4-----------7----5----4-4-------------------------------------------|
Db|--5----4----5-5-5--7----5----4-4-5------7--7--7-7-7-7--7--7-7-7------------|
Ab|--3----2----5-5-5--5----3----2-2-5------7--7--7-7-7-7--7--7-7-7------------|
Eb|------------3-3-3----------------3------5--5--5-5-5-5--5--5-5-5------------|

eb|---------------------------------------------------------------------------|
Bb|---------------------------------------------------------------------------|
Gb|--5----4-----------7----5----7-7-11----------------------------------------|
Db|--5----4----5-5-5--7----5----7-7-11---7----7--7-7-7-7--7--7-7-7------------|
Ab|--3----2----5-5-5--5----3----5-5-9----7----7--7-7-7-7--7--7-7-7------------|
Eb|------------3-3-3---------------------5----5--5-5-5-5--5--5-5-5------------|

eb|---------------------------------------------------------------------------|
Bb|---------------------------------------------------------------------------|
Gb|--5----4-----------7----5----4-4-------------------------------------------|
Db|--5----4----5-5-5--7----5----4-4-5------7--7--7-7-7-7--7--7-7-7------------|
Ab|--3----2----5-5-5--5----3----2-2-5------7--7--7-7-7-7--7--7-7-7------------|
Eb|------------3-3-3----------------3------5--5--5-5-5-5--5--5-5-5------------|

eb|---------------------------------------------------------------------------|
Bb|---------------------------------------------------------------------------|
Gb|--5----4-----------7----5----7-7-11----------------------------------------|
Db|--5----4----5-5-5--7----5----7-7-11---3--------------3333333333333333------|
Ab|--3----2----5-5-5--5----3----5-5-9----3--------------3333333333333333------|
Eb|------------3-3-3---------------------1--------------1111111111111111------|

Outro Part 2:
   Guitar 1:
eb|---------------------------------------------------------------------------|
Bb|---------------------------------------------------------------------------|
Gb|---------------------------------------------------------------------------|
Db|----10--10-9--10--9----5-5/7---------10--10-9--10--9---9-9-\7-------------|
Ab|----12--12-10-12--10---7-7/8---------12--12-10-12--10--10-10\8-------------|
Eb|---------------------------------------------------------------------------|

eb|---------------------------------------------------------------------------|
Bb|---------------------------------------------------------------------------|
Gb|--------------------------------5--5-5--5-5-5--7--7-7--7-7-7---------------|
Db|----10--10-9--10--9----5-5/7----5--5-5--5-5-5--7--7-7--7-7-7---------------|
Ab|----12--12-10-12--10---7-7/8----3--3-3--3-3-3--5--5-5--5-5-5---------------|
Eb|---------------------------------------------------------------------------|

   Guitar 2:
eb|---------------------------------------------------|
Bb|---------------------------------------------------|
Gb|---------------------------------------------------|
Db|-777777777777777777777777777777777777777777777777--|
Ab|-777777777777777777777777777777777777777777777777--|
Eb|-555555555555555555555555555555555555555555555555--|

eb|--------------------------------|
Bb|--------------------------------|
Gb|-5--5-5--5-5-5--7--7-7--7-7-7---|
Db|-5--5-5--5-5-5--7--7-7--7-7-7---|
Ab|-3--3-3--3-3-3--5--5-5--5-5-5---|
Eb|--------------------------------|

Outro Part 3:
   Guitar 1:
eb|---------------------------------------------------------------------------|
Bb|---------------------------------------------------------------------------|
Gb|----14--14-14--14-14-14-14--14-14--14-14-14-14--14-14-14-14-9--9-9--9-9-9--|
Db|-----x---x--x---x--x--x--x---x--x---x--x--x--x---x--x--x--x-x--x-x--x-x-x--|
Ab|----12--12-12--12-12-12-12--12-12--12-12-12-12--12-12-12-12-7--7-7--7-7-7--|
Eb|---------------------------------------------------------------------------|

eb|---------------------------------------------------------------------------|
Bb|---------------------------------------------------------------------------|
Gb|----17--17-17--17-17-17--19--19-19--19-19-19-------------------------------|
Db|-----x---x--x---x--x--x---x---x--x---x--x--x-------------------------------|
Ab|----15--15-15--15-15-15--17--17-17--17-17-17-------------------------------|
Eb|---------------------------------------------------------------------------|

   Guitar 2:
eb|---------------------------------------------------|
Bb|---------------------------------------------------|
Gb|---------------------------------------------------|
Db|-777777777777777777777777777777777777777777777777--|
Ab|-777777777777777777777777777777777777777777777777--|
Eb|-555555555555555555555555555555555555555555555555--|

eb|--------------------------------|
Bb|--------------------------------|
Gb|-5--5-5--5-5-5--7--7-7--7-7-7---|
Db|-5--5-5--5-5-5--7--7-7--7-7-7---|
Ab|-3--3-3--3-3-3--5--5-5--5-5-5---|
Eb|--------------------------------|

   Guitar 1:
eb|----------|
Bb|----------|
Gb|----14----|
Db|-----x----|
Ab|----12----|
Eb|----------|

   Guitar 2:
eb|---------|
Bb|---------|
Gb|---------|
Db|----7----|
Ab|----7----|
Eb|----5----|


Tap to rate this tab
 
# A B C D E F G H I J K L M N O P Q R S T U V W X Y Z