Rise Against - Satellite tab

-------------------------------------------------------------------------------
			     Satellite - Rise Against
-------------------------------------------------------------------------------
Tabbed by: Patrick Villeneuve

Tuning: D A D G B E


Intro
Clean
e|----------------------|
B|----------------------|
G|-10---8---8---10------|
D|-10---6---8---8-------|   X4
A|-8----6---6---8-------|
D|------6-------8-------|


Chorus
Disto
e|---------------------------------------------------------------------------|
B|--------------------------------------------------------4-6----------------|
G|---------8----------------8---6--8----------5---5-3------------------------|
D|-3---6---8---10---3---6---8---6--8---X2-----3-------5-6-------3------------|
A|-3---6---6---10---3---6---6---4--6----------3------------------------------|
D|-3---6-------10---3---6---------------------3------------------------------|


Verse
Disto	
e|---------4-3--------------------|
B|----4-----------4-----4-6-------|
G|--5-----------5-----3-----------|
D|--------------------------------|   X2
A|--------------------------------|
D|--------------------------------|

(PICK SLIDE)

Chorus
Disto
e|----------------------------------------|
B|----------------------------------------|
G|---------8----------------8---6--8------|
D|-3---6---8---10---3---6---8---6--8------|  X2
A|-3---6---6---10---3---6---6---4--6------|
D|-3---6-------10---3---6-----------------|




Bridge Part 1
Disto
e|-----------------|
B|-----------------|
G|--6---8---6---8--|
D|--6---8---6---8--|
A|--4---6---4---6--|
D|-----------------|


Bridge Part 2
Clean
e|-------4---6-------|
B|--9----6---8---11--|
G|--10---6---8---10--|
D|--10---6---8---8---|  X4
A|--8------------8---|
D|---------------8---|

Bridge Part 3
Disto
e|-------------------------------------|
B|-------------------------------------|
G|------6---8-------------6--8--6--8---|
D|--3---6---8---10--X4----6--8--6--8---|
A|--3---4---6---10--------4--6--4--6---|
D|--3-----------10---------------------|

Chorus
Disto
e|-------------------------------------------|
B|-------------------------------------------|
G|------------------------------3------------|
D|-3----(Drum solo)--1--3---------5-6-5-1-3--|
A|-3-----------------1--3--------------------|
D|-3-----------------1--3--------------------|

e|-------------------------------|
B|-------------------------------|
G|---------8----------------8--8-|
D|-3---6---8---10---3---6---8--8-|
A|-3---6---6---10---3---6---6--6-|
D|-3---6-------10---3---6--------|

End
Disto
e|--------------------------------------------|
B|--------------------------------------------|
G|-6-6--xxx--6-6--xxx--6-6--xxx--6-6--xxx-----|
D|-6-6--xxx--6-6--xxx--6-6--xxx--6-6--xxx--3--|
A|-4-4--xxx--4-4--xxx--4-4--xxx--4-4--xxx--3--|
D|-----------------------------------------3--|


************************************

| /   slide up
| \   slide down
| h   hammer-on
| p   pull-off
| ~   vibrato
| +   harmonic
| x   Mute note
| b   Bend
| pb  Pre-bend
| br  Bend release
| pbr Pre-bend release
| brb Bend release bend

************************************
Tap to rate this tab
 
# A B C D E F G H I J K L M N O P Q R S T U V W X Y Z