Song name
# A B C D E F G H I J K L M N O P Q R S T U V W X Y Z

Rise Against - Make It Stop Septembers Children tab

I dont know if the tab is 100% right but it sounds very good to me


Intro:
Play this with tremolo effect:
-------------------|
-------------------|
--------7-------9--|
----5---7---7---9--|
----5---5---7---7--|
----7-------5------|

Verse:
--------------------------------------------|
--------------------------------------------|
--------7-----------5-----------------------|
--5-----7-x8--7-----5-x8--------------------|
--5-x8--5-----7-x8--7-----------------------|
--7-----------5-----------------------------|

--------------------------------------------|
--------------------------------------------|
--------7-----------5-----------------------|
--5-----7-x8--7-----5-x8----5---------------|
--5-x8--5-----7-x8--7-------5-let-ring------|
--7-----------5-------------7---------------|

play the same muted and then:


------------------------------------------------|
------------------------------------------------|
------------------------------------------------|
----5------7------5------7------5------7--------|
----5-x8---7-x8---5-x8---7-x8---5-x8---7-x4-----|
----3------5------3------5------3------5--------|

Chorus:
----------------------------|
----------------------------|
--------7-----------5-------|
--5-----7-x8--7-----5-x8----|
--5-x8--5-----7-x8--7-------|
--7-----------5-------------|

----------------------------|
----------------------------|
--------7-----------5-------|
--5-----7-x8--7-----5-x4----|
--5-x8--5-----7-x4--7-------|
--7-----------5-------------|

----------------------------|
----------------------------|
--------7-----------5-------|
--5-----7-x8--7-----5-x8----|
--5-x8--5-----7-x8--7-------|
--7-----------5-------------|

----------------------------|
----------------------------|
----------------------------|
----5-------7---------------|
----5-x16---7-x16-----------|
----3-------5---------------|


Verse:

--------------------------------------------|
--------------------------------------------|
--------7-----------5-----------------------|
--5-----7-x8--7-----5-x8--------------------|
--5-x8--5-----7-x8--7-----------------------|
--7-----------5-----------------------------|

--------------------------------------------|
--------------------------------------------|
--------7-----------5-----------------------|
--5-----7-x8--7-----5-x8----5---------------|
--5-x8--5-----7-x8--7-------5-let-ring------|
--7-----------5-------------7---------------|

play the same muted and then:


------------------------------------------------|
------------------------------------------------|
------------------------------------------------|
----5------7------5------------5------7---------|
----5------7------5---break----5------5-x5------|
----3------5------3------------3------5---------|


Chorus:

----------------------------|
----------------------------|
--------7-----------5-------|
--5-----7-x8--7-----5-x8----|
--5-x8--5-----7-x8--7-------|
--7-----------5-------------|

----------------------------|
----------------------------|
--------7-----------5-------|
--5-----7-x8--7-----5-x4----|
--5-x8--5-----7-x4--7-------|
--7-----------5-------------|

----------------------------|
----------------------------|
--------7-----------5-------|
--5-----7-x8--7-----5-x8----|
--5-x8--5-----7-x8--7-------|
--7-----------5-------------|

----------------------------|
----------------------------|
----------------------------|
----5-------7---------------|
----5-x16---7-x16-----------|
----3-------5---------------|


Bridge:

------------------------------------------------|
------------------------------------------------|
---4------2-------------------------------------|
---4-x8---2-x8---4-----5------------------------|  3 times
---2------0------4-x8--5-x8---------------------|
-----------------2-----3------------------------|

after that:

-----------------------------------------------------|
-----------------------------------------------------|
--4-----2--------------------4-----------------------|
--4-x8--2-x8---4------5------4-x8--5-----7------5----|
--2-----0------4-x8---5-x8---2-----5-x4--7-x4---5----|
---------------2------3------------3-----5------7----|


play this muted 2 times:

----------------------------|
----------------------------|
--------7-----------5-------|
--5-----7-x8--7-----5-x8----|
--5-x8--5-----7-x8--7-------|
--7-----------5-------------|

Outro (Same as the Chorus)

----------------------------|
----------------------------|
--------7-----------5-------|
--5-----7-x8--7-----5-x8----|
--5-x8--5-----7-x8--7-------|
--7-----------5-------------|

----------------------------|
----------------------------|
--------7-----------5-------|
--5-----7-x8--7-----5-x4----|
--5-x8--5-----7-x4--7-------|
--7-----------5-------------|

----------------------------|
----------------------------|
--------7-----------5-------|
--5-----7-x8--7-----5-x8----|
--5-x8--5-----7-x8--7-------|
--7-----------5-------------|


----------------------------|
----------------------------|
--------7-----------5-------|
--5-----7-x8--7-----5-x4----|
--5-x8--5-----7-x4--7-------|
--7-----------5-------------|
Tap to rate this tab
 
# A B C D E F G H I J K L M N O P Q R S T U V W X Y Z