Rise Against - Make It Stop Septembers Children tab

Make It Stop
Risae Against
Played Half Step Down*
*Doesn't have to be played half to step down. To convert to standard tuning, just 
increase every number on this tab by one

intro with tremelo
eb------------|
bb------------|
gb----7-----9-|
db-9--7--7--9-|
ab-9--5--7--7-|
eb-7-----5----|

then this riff is played twice and the same chords from the intro are played
eb---7----------------------------|
bb----7-----7--------7-8-7--------|
gb-----7--9---9-7-9-9-------------|x2
db-9------------------------------|
ab--------------------------------|
eb--------------------------------|

Verse
Starts with bass playing
gb----------------------------------------------------------------|
db----------------------------------------------------------------|x2 alone
ab----------------5-5-5-5-5-5-5-5---------------7-7-7-7-7-7-7-7---|x2 with guitar
eb-7-7-7-7-7-7-7-7---------------5-5-5-5-5-5-5-5------------------|

Then the guitar plays with tremolo like intro(corresponds with bass part)
eb-----------------------------------------------------------------|
bb-----------------------------------------------------------------|
gb-----------------7----------------------------9------------------|
db-9---------------7-------------7--------------9------------------|
ab-9---------------5-------------7--------------7------------------|
eb-7-----------------------------5---------------------------------|


Pre Chorus
eb------------------------------------------------|
bb------------------------------------------------|
gb------------------------------------------------|
db----5------7------5------7------5------7--------|
ab----5-x8---7-x8---5-x8---7-x8---5-x8---7-x4-----|
eb----3------5------3------5------3------5--------|

Chorus(x8 for each chord)
eb------------|
bb------------|
gb----7-----9-|
db-9--7--7--9-|x3
ab-9--5--7--7-|
eb-7-----5----|

eb-------------------|
bb-------------------|
gb-------------------|
db----5------7-------|
ab----5-x8---7-x8----|
eb----3------5-------|

Break(chorus chords under this)
eb---7----------------------------|
bb----7-----7--------7-8-7--------|
gb-----7--9---9-7-9-9-------------|x2
db-9------------------------------|
ab--------------------------------|
eb--------------------------------|

Verse 2
Starts with bass playing
gb----------------------------------------------------------------|
db----------------------------------------------------------------|x2 alone
ab----------------5-5-5-5-5-5-5-5---------------7-7-7-7-7-7-7-7---|x2 with guitar
eb-7-7-7-7-7-7-7-7---------------5-5-5-5-5-5-5-5------------------|

After bass plays part once, guitar plays this over it
eb-------------------------------------------------------------------|
bb-------------------------------------------------------------------|
gb-11-x16------------------------9 x16-------------------------------|
db-------------------------------------------------------------------|
ab-------------------------------------------------------------------|
eb-------------------------------------------------------------------|
Then the guitar plays with tremolo like intro(corresponds with bass part)
eb-----------------------------------------------------------------|
bb-----------------------------------------------------------------|
gb-----------------7----------------------------9------------------|
db-9---------------7-------------7--------------9------------------|
ab-9---------------5-------------7--------------7------------------|
eb-7-----------------------------5---------------------------------|

Pre Chorus
eb-------------------------------------------------|
bb-------------------------------------------------|
gb-------------------------------------------------|
db----5------7------5----5-4------5------7---------|
ab----5------7------5---5-5-5-----5------5-x5------|
eb----3------5------3-------------3------5---------|

Chorus
eb------------|
bb------------|
gb----7-----9-|
db-9--7--7--9-|x3
ab-9--5--7--7-|
eb-7-----5----|

eb-------------------|
bb-------------------|
gb-------------------|
db----5------7-------|
ab----5-x8---7-x8----|
eb----3------5-------|

Bridge
eb------------------------------------------------|
bb------------------------------------------------|
gb---4------2-------------------------------------|
db---4-x8---2-x8---4-----5------------------------|  x4
ab---2------0------4-x8--5-x8---------------------|
eb-----------------2-----3------------------------|

then play
eb----------------|
bb----------------|
gb-4--------------|
db-4-x8-5----7----| right after this start the outro which is just the intro again
bb-2----5-x8-7-x8-|
eb------3----5----|


eb------------|
bb------------|
gb----7-----9-|
db-9--7--7--9-|
ab-9--5--7--7-|
eb-7-----5----|

Then play only part of chorus
eb------------|
bb------------|
gb----7-----9-|
db-9--7--7--9-|x3
ab-9--5--7--7-|
eb-7-----5----|
Tap to rate this tab
 
# A B C D E F G H I J K L M N O P Q R S T U V W X Y Z