Rise Against - This Is Letting Go tab

This Is Letting Go- Rise Against

Intro

Guitar 1: Distortion
Guitar 2: Distortion

Tuning: Drop D/ D A D G B E

Guitar 1
|-----------------------------------------------------|
|----------------------9-8-------------9--------------|
|------------------8h10----10--------8---8------------|
|----------10~-----------------10------------8h10-8---|
|--------------------------------------------------11-|
|-----------------------------------------------------|
Guitar 2
|-----------------------------------------------------|
|-----------------------------------------------------|
|-----------------------------------------------------|
|-10~---10-x8---------------8-x8---10-x8------8-x12---|
|-8~---8------11-x8---6-x6--6------8----11-x8-6-------|
|-------------11------6-----------------11------------|
Guitar 1
|-----------------------------------------------------|
|-----------------------------------------------------|
|-8h10-10-x6-8h10-x6--8h10-10-x6-8h10-10-x6-----------|
|-----------------------------------------------------|
|-6h8--8-----6h8------6h8--8-----6h8--8---------------|
|-----------------------------------------------------|
Guitar 2
|-----------------------------------------------------|
|-----------------------------------------------------|
|-----------------------------------------------------|
|-----10-x8----------------8-x8-----------------------|x2
|-----8-------11-x8--6-x6--6--------------------------|
|-------------11-----6--------------------------------|
Guitar 1
|-----------------------------------------------------|
|--------9-8--------9--11--8-9h8h9h8h9h8h9h8----------|
|---8h10-----10------------8--------------------------|
|---------------10------------------------------------|
|-----------------------------------------------------|
|-----------------------------------------------------|
Tap to rate this tab
 
# A B C D E F G H I J K L M N O P Q R S T U V W X Y Z