Song name
# A B C D E F G H I J K L M N O P Q R S T U V W X Y Z

Rise Against - Disparity By Design tab

Intro:
eb|--------------------------------------------------------|
Bb|--------------------------------------------------------|
Gb|---------------7---7-9-9-9---------------7-7777-4-4444--|
Db|--4-2-4-7-7-7--7-7-7-9-9-9--4-2-4-7-7-7--7-7777-4-4444--|
Ab|--4-2-4-7-7-7--5-7-5-7-7-7--4-2-4-7-7-7--5-5555-2-2222--|
Eb|--2-0-2-5-5-5----5----------2-0-2-5-5-5-----------------|

eb|---------------------------------------------------------------------|
Bb|--7-7-----10-9---7-7----------------7-7----10-9--12-10-9---10-9------|
Gb|--9^9^-6-9----9--9^9^-6-9-s11-9--9--9^9^6-9----9--------9------11-9--|
Db|-------------------------------11------------------------------------|
Ab|---------------------------------------------------------------------|
Eb|---------------------------------------------------------------------|

eb|-----------------------|
Bb|--9---10--12--10--7-~--|
Gb|--11^-12^-14^-12^-9^~--|
Db|-----------------------|
Ab|-----------------------|
Eb|-----------------------|

Verse:
eb|------9----------------------9-----------|
Bb|----10---10----------------10--10--------|
Gb|--11--------11--9--s11---11-------11--9--|
Db|-----------------------------------------|
Ab|-----------------------------------------|
Eb|-----------------------------------------|

eb|-------------------------------------------------------------------|
Bb|-------------------------------------------------------------------|
Gb|----------7777777-4444444-6666666----------7777777-99999999999999--|
Db|--4444444-7777777-4444444-6666666--4444444-7777777-99999999999999--|
Ab|--4444444-5555555-2222222-4444444--4444444-5555555-77777777777777--|
Eb|--2222222--------------------------2222222---------77777777777777--|

Pre-Chorus:
eb|-----------------------------------------------------------------
Bb|-----------------------------------------------------------------
Gb|--6-6666-7-7777-4-4444-6-66666r---66r-77r-77r-6-4/6-6666-7-7777--
Db|--x-xxxx-x-xxxx-x-xxxx-x-xxxxxr---xxr-xxr-xxr-x-x/x-xxxx-x-xxxx--
Ab|--4-4444-5-5555-2-2222-4-44444r---44r-55r-55r-4-2/4-4444-5-5555--
Eb|-----------------------------------------------------------------

----------------------------------------------------------------------------|
----------------------------------------------------------------------------|
-4-4444-6-6666-6-6666-7-7777-9-9999999-12-1212121212-11-11111111-12121212r--|
-x-xxxx-x-xxxx-x-xxxx-x-xxxx-x-xxxxxxx--x--x-x-x-x-x--x--x-x-x-x--x-x-x-xr--|
-2-2222-4-4444-4-4444-5-5555-7-7777777-10-1010101010--9--9-9-9-9-10101010r--|
----------------------------------------------------------------------------|

Chorus:
eb|------------------------------------------------------------------------|
Bb|------------------------------------------------------------------------|
Gb|----------6666666-7777777-------99999----------6666666-7777777-9999999--|
Db|--4444444-6666666-7777777-77777-99999--4444444-6666666-7777777-9999999--|
Ab|--4444444-4444444-5555555-77777-77777--4444444-4444444-5555555-7777777--|
Eb|--2222222-----------------55555--------2222222-----------------7777777--|

Then:
eb|-------------------------------------------------------------------------|
Bb|--7-7-----10-9---7-7----------------7-7----10-9--12-10-9---10-9------7*--|
Gb|--9^9^-6-9----9--9^9^-6-9-s11-9--9--9^9^6-9----9--------9------11-9------|
Db|-------------------------------11----------------------------------------|
Ab|-------------------------------------------------------------------------|
Eb|-------------------------------------------------------------------------|

Verse 2:
eb|-------------------------------------------------------------------|
Bb|-------------------------------------------------------------------|
Gb|----------7777777-4444444-6666666----------7777777-99999999999999--|
Db|--4444444-7777777-4444444-6666666--4444444-7777777-99999999999999--|
Ab|--4444444-5555555-2222222-4444444--4444444-5555555-77777777777777--|
Eb|--2222222--------------------------2222222---------77777777777777--|

Pre-Chorus:
eb|-----------------------------------------------------------------
Bb|-----------------------------------------------------------------
Gb|--6-6666-7-7777-4-4444-6-66666r---66r-77r-77r-6-4/6-6666-7-7777--
Db|--x-xxxx-x-xxxx-x-xxxx-x-xxxxxr---xxr-xxr-xxr-x-x/x-xxxx-x-xxxx--
Ab|--4-4444-5-5555-2-2222-4-44444r---44r-55r-55r-4-2/4-4444-5-5555--
Eb|-----------------------------------------------------------------

------------------------------------------------------------------------|
------------------------------------------------------------------------|
----444444-666666-6-6666-7-7777-9-9999999--1212121212-11111111-12-11-9--|
----444444-666666-x-xxxx-x-xxxx-x-xxxxxxx---x-x-x-x-x--x-x-x-x--x--x-x--|
----222222-444444-4-4444-5-5555-7-7777777--1010101010--9-9-9-9-10--9-7--|
------------------------------------------------------------------------|
Pm: ****** ******

Chorus:
eb|------------------------------------------------------------------------|
Bb|------------------------------------------------------------------------|
Gb|----------6666666-7777777-------99999----------6666666-7777777-9999999--|
Db|--4444444-6666666-7777777-77777-99999--4444444-6666666-7777777-9999999--|x2
Ab|--4444444-4444444-5555555-77777-77777--4444444-4444444-5555555-7777777--|
Eb|--2222222-----------------55555--------2222222-----------------7777777--|

Bridge:
eb|----------------------------------------|
Bb|----------------------------------------|
Gb|--111111/1212\111111-1313-14-13-131313--|
Db|---x-x-x/-x-x\-x-x-x--x-x--x--x--x-x-x--|x3
Ab|---9-9-9/1010\-9-9-9-1111-12-11-111111--|
Eb|----------------------------------------|

Then:
eb|-----------------------------|
Bb|-----------------------------|
Gb|--1111111111111111-99999999--|
Db|---x-x-x-x-x-x-x-x-xxxxxxxx--|
Ab|---9-9-9-9-9-9-9-9-77777777--|
Eb|-----------------------------|
                                                                     slowly release
eb|----------------------------------------------------------------------------|
Bb|----------------------------------------------------------------------------|
Gb|-----------66666666-77777777-99999999-----------66666666-77777777-99999999--|
Db|--44444444-66666666-77777777-99999999--44444444-66666666-77777777-99999999--|
Ab|--44444444-44444444-55555555-77777777--44444444-44444444-55555555-77777777--|
Eb|--22222222-----------------------------22222222-----------------------------|
Pm:  ******** ******** ******** ********  ******** ******** ******** ********

eb|-------------------------------------------------------------------------------|
Bb|-------------------------------------------------------------------------------|
Gb|--7----------7----------77777777----------------------------77777777-----------|
Db|--7--2--4~---7--2--4~---77777777-22222222-44444444-77777777-77777777-22222222--|
Ab|--5--2--4~---5--2--4~---55555555-22222222-44444444-77777777-55555555-22222222--|
Eb|-----0--2~------0--2~------------00000000-22222222-55555555----------00000000--|

eb|---------------------------------------------------------------------|
Bb|--------3-2-------3-2-------------------------3-2-------3-2----------|
Gb|--1h2p1-----1h2p1-----4-2-1-2--4-2-1-2--1h2p1-----1h2p1-----4-2-1-2--|
Db|---------------------------------------------------------------------|
Ab|---------------------------------------------------------------------|
Eb|---------------------------------------------------------------------|

Chorus:
eb|------------------------------------------------------------------------|
Bb|------------------------------------------------------------------------|
Gb|----------6666666-7777777-------99999----------6666666-7777777-9999999--|
Db|--4444444-6666666-7777777-77777-99999--4444444-6666666-7777777-9999999--|
Ab|--4444444-4444444-5555555-77777-77777--4444444-4444444-5555555-7777777--|
Eb|--2222222-----------------55555--------2222222-----------------7777777--|

eb|---------------------------------------------------------------xxxxxxxx--|
Bb|---------------------------------------------------------------xxxxxxxx--|
Gb|----------6666666-7777777-------99999----------6666666-7777777-xxxxxxxx--|
Db|--4444444-6666666-7777777-77777-99999--4444444-6666666-7777777-xxxxxxxx--|
Ab|--4444444-4444444-5555555-77777-77777--4444444-4444444-5555555-xxxxxxxx--|
Eb|--2222222-----------------55555--------2222222-----------------xxxxxxxx--|
Pm:                          ***** *****
                            ^^very fast^^

End on:
eb|-----|     eb|------|
Bb|-----|     Bb|------|
Gb|-----|     Gb|--11--|
Db|--4--| or: Db|--11--|
Ab|--4--|     Ab|--9---|
Eb|--2--|     Eb|------|
Tap to rate this tab
 
# A B C D E F G H I J K L M N O P Q R S T U V W X Y Z