Rise Against - Disparity By Design tab

Disparity by Design
Rise Against

Tabbed by Fabio S.

Tuning: Half-Step Down

b: bending
v: vibrieren lassen
s: Slide
p.m: Palm Mute

Here the first Tab for Disparity by Design by Rise Against.
Enjoy!
You have to figure out the rythm in the verse-parts by yourselves, but it´s not so difficult

Fabio S.

Hier das erste Tab zu Disparity by Design von Rise Against.
Habt Spaß damit!
Ihr müsst in den Versen den Rythmus selbst herrausfinden, sollte aber nicht zu schwer sein



---Disparity by Design----

Intro

e|-------------------------------|
B|-------------------------------|
G|------------------7---7--9-9-9-|
D|-4-2-4----7-7-7---7-7-7--9-9-9-|
A|-4-2-4----7-7-7---5-7-5--7-7-7-|
E|-2-0-2----5-5-5-----5----------|

e|-------------------------------|
B|-------------------------------|
G|------------------7-7-7--4-4-4-|
D|-4-2-4----7-7-7---7-7-7--4-4-4-|
A|-4-2-4----7-7-7---5-5-5--2-2-2-|
E|-2-0-2----5-5-5----------------|
 
e|--------------------------------------------------------------------------|
B|-7b-7b-----10-9---7b-7b-------------7b-7b-----10-9---12-10-9---10-9----9--|
G|-9b-9b-6-9------9-9b-9b-6-11-9----9-9b-9b-6-9------9---------9------10----|
D|-------------------------------11-----------------------------------------|
A|--------------------------------------------------------------------------|
E|--------------------------------------------------------------------------|

e|-----------------------|
B|-9 b-10b-12b-10b-------|
G|-11b-12b-14b-12b-11v---|
D|-----------------------|
A|-----------------------|
E|-----------------------|



Verse 1

e|-------9------------------------------9-------9-----|
B|----10---10------------------------10---10------10--|
G|-11---------11------10v-11v----11----------11-------|
D|----------------------------------------------------|
A|----------------------------------------------------|
E|----------------------------------------------------|

e|---------------------------------------------------------|
B|---------------------------------------------------------|
G|---------7-7-7---4-4-4---6-6-6-----------7-7-7---9-9-9---|
D|-4-4-4---7-7-7---4-4-4---6-6-6---4-4-4---7-7-7---9-9-9---|
A|-4-4-4---5-5-5---2-2-2---4-4-4---4-4-4---5-5-5---7-7-7---|
E|-2-2-2---------------------------2-2-2-------------------|

e|---------------------------------------------------------------|
B|---------------------------------------------------------------|
G|-6-6-6---7-7-7---4-4-4---6-6-6-------------6-6--7-7--7-7--6-6--|
D|-6-6-6---7-7-7---4-4-4---6-6-6-------------6-6--7-7--x-x--6-6--|
A|-4-4-4---5-5-5---2-2-2---4-4-4-------------4-4--5-5--5-5--4-4--|
E|---------------------------------------------------------------|

e|----------------------------------------------------------------------------------------|
B|----------------------------------------------------------------------------------------|
G|----------------------------------------------------------14-14-14--13-13-13--14-14-14--|
D|-s6-6-6---7-7-7---4-4-4---6-6-6---6-6-6---7-7-7---9-9-9---x--x--x---x--x--x---x--x--x---|
A|-s4-4-4---5-5-5---2-2-2---4-4-4---4-4-4---5-5-5---7-7-7---12-12-12--11-11-11--12-12-12--|
E|----------------------------------------------------------------------------------------|



Chorus 1

e|----------------------------------------|--------------------------------|
B|----------------------------------------|--------------------------------|
G|---------6-6-6---7-7-7-----------9-9-9--|---------6-6-6---7-7-7---9-9-9--|
D|-4-4-4---6-6-6---7-7-7---7-7-7---9-9-9--|-4-4-4---6-6-6---7-7-7---9-9-9--|
A|-4-4-4---4-4-4---5-5-5---7-7-7---7-7-7--|-4-4-4---4-4-4---5-5-5---7-7-7--|
E|-2-2-2-------------------5-5-5----------|-2-2-2--------------------------|

e|-----------------------------------------------------|
B|-7b-7b-----10-9---7b-7b-------------7b-7b-----10-9---|
G|-9b-9b-6-9------9-9b-9b-6-11-9----9-9b-9b-6-9------9-|
D|-------------------------------11--------------------|
A|-----------------------------------------------------|
E|-----------------------------------------------------|



Verse 2

e|---------------------------------------------------------|
B|---------------------------------------------------------|
G|---------7-7-7---4-4-4---6-6-6-----------7-7-7---9-9-9---|
D|-4-4-4---7-7-7---4-4-4---6-6-6---4-4-4---7-7-7---9-9-9---|
A|-4-4-4---5-5-5---2-2-2---4-4-4---4-4-4---5-5-5---7-7-7---|
E|-2-2-2---------------------------2-2-2-------------------|

e|----------------------------------------------------------------|
B|----------------------------------------------------------------|
G|-----------------4-4-4---6-6-6-------------6-6s--7-7--7-7--6-6--|
D|-6-6-6---7-7-7---4-4-4---6-6-6-------------6-6s--x-x--x-x--x-x--|
A|-4-4-4---5-5-5---2-2-2---4-4-4-------------4-4s--5-5--5-5--4-4--|
E|----------------------------------------------------------------|

e|----------------------------------------------------------------------------------------|
B|----------------------------------------------------------------------------------------|
G|----------------------------------------------------------14-14-14--13-13-13--14-13-11--|
D|-s6-6-6---7-7-7---4-4-4---x-x-x---6-6-6---7-7-7---9-9-9---x--x--x---x--x--x---x--x--x---|
A|-s4-4-4---5-5-5---2-2-2---x-x-x---4-4-4---5-5-5---7-7-7---12-12-12--11-11-11--12-11-9---|
E|--------------------------x-x-x---------------------------------------------------------|



Chorus 2

e|----------------------------------------|--------------------------------|
B|----------------------------------------|--------------------------------|
G|---------6-6-6---7-7-7-----------9-9-9--|---------6-6-6---7-7-7---9-9-9--|
D|-4-4-4---6-6-6---7-7-7---7-7-7---9-9-9--|-4-4-4---6-6-6---7-7-7---9-9-9--| 
A|-4-4-4---4-4-4---5-5-5---7-7-7---7-7-7--|-4-4-4---4-4-4---5-5-5---7-7-7--|
E|-2-2-2-------------------5-5-5----------|-2-2-2--------------------------|

Wird 2mal gespielt !
Played Twice!


Interlude

e|--------------------------------------------------|	
B|--------------------------------------------------|	
G|-11-11-11-14-14-14--12-12-13-13-14-13-13-13-13-13-|	
D|-x--x--x--x--x--x---x--x--x--x--x--x--x--x--x--x--|3x	
A|-9--9--9--12-12-12--9--9--11-11-12-11-11-11-11-11-|	
E|--------------------------------------------------|	

e|------------------------------------------|	
B|------------------------------------------|	
G|-11-11-11-11-11-11-11-11-9-9-9-9-9-9-9-9--|	
D|-x--x--x--x--x--x--x--x--x-x-x-x-x-x-x-x--|	
A|-9--9--9--9--9--9--9--9--7-7-7-7-7-7-7-7--|	
E|------------------------------------------|



Bridge

e|----------------------------------------------------------------|
B|----------------------------------------------------------------|
G|---------6-6-6---7-7-7--------------------6-6-6---7-7-7---9-9-9-|
D|-4-4-4---6-6-6---7-7-7---7-7-7----4-4-4---6-6-6---7-7-7---9-9-9-|
A|-4-4-4---4-4-4---5-5-5---7-7-7----4-4-4---4-4-4---5-5-5---7-7-7-|
E|-2-2-2-------------------5-5-5----2-2-2-------------------------|
  .p.m.....p.m....p.m......p.m......p.m.....p.m.....p.m.....p.m...

e|------------------------------------------------|
B|------------------------------------------------|
G|-7----------------------------------------------|
D|-7------2-------4-------7---------2----------4--|
A|-5------2-------4-------5---------2----------4--|
E|--------0-------2-----------------0----------2--|

e|---------------------------------------------|
B|---------------------------------------------|
G|-7-7-7--9-9-9----------------7-7-7--9-9-9----|
D|-7-7-7--9-9-9--4-4-4--7-7-7--7-7-7--9-9-9--4-|
A|-5-5-5--7-7-7--4-4-4--7-7-7--5-5-5--7-7-7--4-|
E|---------------2-2-2--5-5-5----------------2-|

e|-----------------------------------------------------|
B|-----------------------------------------------------|
G|-14--13--11------------------------7-6v--------------|
D|-x----x--x-----9-7-6-6-7v----7-6-6-------------------|
A|-12--11--9-------------------------------(Pickslide)-|
E|-----------------------------------------------------|



Chorus 3

e|----------------------------------------|------------------------------------|
B|----------------------------------------|------------------------------------|
G|---------6-6-6---7-7-7-----------9-9-9--|---------6-6-6---7-7-7---9-9-9------|
D|-4-4-4---6-6-6---7-7-7---7-7-7---9-9-9--|-4-4-4---6-6-6---7-7-7---9-9-9----4-| 
A|-4-4-4---4-4-4---5-5-5---7-7-7---7-7-7--|-4-4-4---4-4-4---5-5-5---7-7-7----4-|
E|-2-2-2-------------------5-5-5----------|-2-2-2----------------------------2-|

Wird 2mal gespielt !
Played Twice!

Tap to rate this tab
 
# A B C D E F G H I J K L M N O P Q R S T U V W X Y Z