Song name
# A B C D E F G H I J K L M N O P Q R S T U V W X Y Z

Rise Against - Broken Mirrors tab

Song: Broken Mirrors
Artist: Rise Against
Album: Endgame

Tabbed by: Spartanscooter

Tuning: Eb Ab Db Gb Bb eb (low to high)

Includes parts for guitar 1,2, and 3 (only plays a couple times)
I think this is probably 95% accurate. There might be a couple mistakes at the end of 
the chorus for guitar 2 because it's
hard to hear it with the power chords over it.  Let me know if you have any corrections



Key:
PM - palm mute the (.) dotted note

/ - slide up

h - hammer-on

x - mute string(s)

x/ - pickslide

14b16rbrb - bend the note on 14 fret to make it sound like 16th fret and then release it 
and bend it repeatedly


Intro: Guitar 1

eb|----------------------------------------------------------------------|
Bb|----------------------------------------------------------------------|
Gb|----------------------------------------------------------------------|
Db|--------1/2-2--2-------1/2-2--2-------1/2-2--2-------1/2-2------------|
Ab|--------1/2-2--2-------1/2-2--2-------1/2-2--2-------1/2-2------------|
Eb|--3-2-0-0-0-0--0-3-2-0-0-0-0--0-3-2-0-0-0-0--0-3-2-0-0-0-0------------|
PM   . . .          . . .          . . .          . . .

eb|-------------------------------------------------------|
Bb|-------------------------------------------------------|
Gb|-------------------------------------------------------|
Db|-1/2-2--2-------1/2-2--2-------1/2-2--2-------1/2-2--2-|
Ab|-1/2-2--2-------1/2-2--2-------1/2-2--2-------1/2-2--0-|
Eb|-0-0-0--0-3-2-0-0-0-0--0-3-2-0-0-0-0--0-3-2-0-0-0-0--0-|
PM           . . .          . . .          . . .

eb|----------------------------------------------------------------------|
Bb|----------------------------------------------------------------------|
Gb|-------------------------------------------------------------------9--|
Db|-------1/2-2--2-------1/2-2--2-------1/2-2--2-------1/2-2--2-------x--|
Ab|-------1/2-2--2-------1/2-2--2-------1/2-2--2-------1/2-2--2-------7--|
Eb|-3-2-0-0-0-0--0-3-2-0-0-0-0--0-3-2-0-0-0-0--0-3-2-0-0-0-0--0-3-2-0----|
PM  . . .          . . .          . . .          . . .          . . .


Intro: Guitar 2 (comes in after first line of guitar 1)

eb|------------------------------------------------------|
Bb|------------------------------------------------------|
Gb|-12---11-10-9---9/12---14-11-9------------------------|
Db|-x----x--x--x---x-x----x--x--x------------------------|
Ab|-10---9--8--7---7/10---12-9--7----x/////////////------|
Eb|----------------------------------x/////////////------|


Verse 1: Guitar 1 (doesn't come in until 0:33)

eb|-----------------------------------------------------------|
Bb|-----------------------------------------------------------|
Gb|-------------------------------------7--77-7------6--66-6--|
Db|-------555555555555-777777777777-2-2-x--xx-x--2-2-x--xx-x--|
Ab|-x////-555555555555-777777777777-2-2-5--55-5--2-2-4--44-4--|
Eb|-x////-333333333333-555555555555-0-0----------0-0----------|


eb|----------------------------------------------|
Bb|----------------------------------------------|
Gb|----------------------------------------------|
Db|-555555555555-777777777777-2------------------|
Ab|-555555555555-777777777777-2---x///////////---|
Eb|-333333333333-555555555555-0---x///////////---|

Verse 1: Guitar 2

eb|-----------------------------------------------------|
Bb|-----------------------------------------------------|
Gb|--2h4-4-4-------2h4-4-4-------2h4-4-4-------2h4-4-4--|
Db|--2---2-2-------2---2-2-------2---2-2-------2---2-2--|
Ab|-----------------------------------------------------|
Eb|----------3-2-0---------3-2-0---------3-2-0----------|
PM           . . .         . . .         . . .

eb|----------------------------------------------------------------|
Bb|----------------------------------------------------------------|
Gb|-------2h4-4-4-------2h4-4-4-------2h4-4-4-------2h4-4-4--------|
Db|-------2---2-2-------2---2-2-------2---2-2-------2---2-2--------|
Ab|----------------------------------------------------------------|
Eb|-3-2-0---------3-2-0---------3-2-0---------3-2-0---------3-2-0--|
PM  . . .         . . .         . . .         . . .         . . .

eb|---------------------------------------------------|
Bb|---------------------------------------------------|
Gb|---------------------------------------------------|
Db|-555555555555-777777777777-------------------------|
Ab|-555555555555-777777777777-------------------------|
Eb|-333333333333-555555555555-0-0-3-33-3--0-0-5-55-5--|

eb|---------------------------------------------|
Bb|---------------------------------------------|
Gb|---------------------------9--9999999999999--|
Db|-555555555555-777777777777-9--9999999999999--|
Ab|-555555555555-777777777777-7--7777777777777--|
Eb|-333333333333-555555555555-------------------|

Chorus: guitar 1

eb|------------------------------------------------------|
Bb|------------------------------------------------------|
Gb|--------------5-55-55-55-5--------------7-77-77-77-7--|
Db|-2-22-22-22-2-5-55-55-55-5-5-55-55-55-5-7-77-77-77-7--| x3
Ab|-2-22-22-22-2-3-33-33-33-3-5-55-55-55-5-5-55-55-55-5--|
Eb|-0-00-00-00-0--------------3-33-33-33-3-5-55-55-55-5--|

eb|----------------------------------------------|
Bb|----------------------------------------------|
Gb|--------------5-55-55-55-5--------------------|
Db|-2-22-22-22-2-5-55-55-55-5-5-55-55-55-5-7--4--|
Ab|-2-22-22-22-2-3-33-33-33-3-5-55-55-55-5-7--4--|
Eb|-0-00-00-00-0--------------3-33-33-33-3-5--2--|

Chorus: guitar 2

eb|-------------------------------------------------------------------------|
Bb|-------------------------------------------------------------------------|
Gb|-9-99-9-12-12-1111-9-99-9-12-12-1111-7-77-77-77-7-11-1111-11-12-12-14-14-|
Db|-x-xx-x-x--x--x-x--x-xx-x-x--x--x-x--x-xx-xx-xx-x-x--x-x--x--x--x--x--x--| x3
Ab|-7-77-7-10-10-9-9--7-77-7-10-10-9-9--5-55-55-55-5-9--9-9--9--10-10-12-12-|
Eb|-------------------------------------------------------------------------|

eb|----------------------------------------------------------------------------|
Bb|----------------------------------------------------------------------------|
Gb|-9-99-9-12-12-1111-9-99-9-12-12-1111-7-77-77-77-7-14--14-14-14-11-1111-11-9-|
Db|-x-xx-x-x--x--x-x--x-xx-x-x--x--x-x--x-xx-xx-xx-x-x---x--x--x--x--x-x--x--x-|
Ab|-7-77-7-10-10-9-9--7-77-7-10-10-9-9--5-55-55-55-5-12--12-12-12-9--9-9--9--7-|
Eb|----------------------------------------------------------------------------|

Interlude: guitar 1

eb|-----------------------|
Bb|-----------------------|
Gb|-----------------------|
Db|-1/2-2--2-------1/2-2--|
Ab|-1/2-2--2-------1/2-2--|
Eb|-0-0-0--0-3-2-0-0-0-0--|

eb|----------------------------------------------------------------|
Bb|----------------------------------------------------------------|
Gb|-------------------------------------------------------------9--|
Db|-1/2-2--2-------1/2-2--2-------1/2-2--2-------1/2-2--2-------x--|
Ab|-1/2-2--2-------1/2-2--2-------1/2-2--2-------1/2-2--2-------7--|
Eb|-0-0-0--0-3-2-0-0-0-0--0-3-2-0-0-0-0--0-3-2-0-0-0-0--0-3-2-0----|
PM           . . .          . . .          . . .          . . .

Interlude: guitar 2 (starts after first line of guitar 1)

eb|---------------|
Bb|---------------|
Gb|-12---11-10-9--|
Db|-x----x--x--x--|
Ab|-10---9--8--7--|
Eb|---------------|

Interlude: guitar 3 (starts same time as guitar 2)

eb|-------------|
Bb|--12---------|
Gb|--14b16rbrb--|
Db|-------------|
Ab|-------------|
Eb|-------------|

Verse 2: guitar 1 (starts at 1:37)

eb|--------------------------------------------------------------|
Bb|--------------------------------------------------------------|
Gb|----------------------------------------7--77-7------6--66-6--|
Db|----------555555555555-777777777777-2-2-x--xx-x--2-2-x--xx-x--|
Ab|-x///////-555555555555-777777777777-2-2-5--55-5--2-2-4--44-4--|
Eb|-x///////-333333333333-555555555555-0-0----------0-0----------|

eb|-----------------------------------------------------|
Bb|-----------------------------------------------------|
Gb|---------------------------555555555555-777777777777-|
Db|-555555555555-777777777777-555555555555-777777777777-|
Ab|-555555555555-777777777777-333333333333-555555555555-|
Eb|-333333333333-555555555555---------------------------|

Verse 2: guitar 2 (starts at 1:31)

eb|----------------------------------------------------------|
Bb|----------------------------------------------------------|
Gb|--2h4-4-4-------2h4-4-4-------2h4-4-4-------2h4-4-4-------|
Db|--2---2-2-------2---2-2-------2---2-2-------2---2-2-------|
Ab|----------------------------------------------------------|
Eb|----------3-2-0---------3-2-0---------3-2-0---------3-2-0-|
PM           . . .         . . .         . . .         . . .

eb|---------------------------------------------------|
Bb|---------------------------------------------------|
Gb|---------------------------------------------------|
Db|-555555555555-777777777777-------------------------|
Ab|-555555555555-777777777777-------------------------|
Eb|-333333333333-555555555555-0-0-3-33-3--0-0-5-55-5--|

eb|----------------------------------------------------------------------------|
Bb|----------------------------------------------------------------------------|
Gb|---------------------------121212121212121212121212-111111111111111111111111|
Db|-555555555555-777777777777-x-x-x-x-x-x-x-x-x-x-x-x--x-x-x-x-x-x-x-x-x-x-x-x-|
Ab|-555555555555-777777777777-101010101010101010101010-9-9-9-9-9-9-9-9-9-9-9-9-|
Eb|-333333333333-555555555555--------------------------------------------------|

Chorus: guitar 1

eb|------------------------------------------------------|
Bb|------------------------------------------------------|
Gb|--------------5-55-55-55-5--------------7-77-77-77-7--|
Db|-2-22-22-22-2-5-55-55-55-5-5-55-55-55-5-7-77-77-77-7--| x3
Ab|-2-22-22-22-2-3-33-33-33-3-5-55-55-55-5-5-55-55-55-5--|
Eb|-0-00-00-00-0--------------3-33-33-33-3-5-55-55-55-5--|

eb|---------------------------------------------|
Bb|---------------------------------------------|
Gb|--------------5-55-55-55-5-------------------|
Db|-2-22-22-22-2-5-55-55-55-5-5-55-55-55-5-7-4--|
Ab|-2-22-22-22-2-3-33-33-33-3-5-55-55-55-5-7-4--|
Eb|-0-00-00-00-0--------------3-33-33-33-3-5-2--|

Chorus: guitar 2

eb|-------------------------------------------------------------------------|
Bb|-------------------------------------------------------------------------|
Gb|-9-99-9-12-12-1111-9-99-9-12-12-1111-7-77-77-77-7-11-1111-11-12-12-14-14-|
Db|-x-xx-x-x--x--x-x--x-xx-x-x--x--x-x--x-xx-xx-xx-x-x--x-x--x--x--x--x--x--| x3
Ab|-7-77-7-10-10-9-9--7-77-7-10-10-9-9--5-55-55-55-5-9--9-9--9--10-10-12-12-|
Eb|-------------------------------------------------------------------------|

eb|----------------------------------------------------------------------------|
Bb|----------------------------------------------------------------------------|
Gb|-9-99-9-12-12-1111-9-99-9-12-12-1111-7-77-77-77-7-14--14-14-14-11-1111-11-9-|
Db|-x-xx-x-x--x--x-x--x-xx-x-x--x--x-x--x-xx-xx-xx-x-x---x--x--x--x--x-x--x--x-|
Ab|-7-77-7-10-10-9-9--7-77-7-10-10-9-9--5-55-55-55-5-12--12-12-12-9--9-9--9--7-|
Eb|----------------------------------------------------------------------------|

Bridge: Guitar 1

eb|--------------------------------------------------------|
Bb|--------------------------------------------------------|
Gb|---------9---------12-----14---------9---------12-----7-|
Db|---------9---------12-----14---------9---------12-----7-|x8
Ab|--------------------------------------------------------|
Eb|-0-0-0-0---0-0-0-0----0-0----0-0-0-0---0-0-0-0----0-0---|
PM  . . . .   . . . .    . .    . . . .   . . . .    . .

eb|------------------|
Bb|------------------|
Gb|-5------7---------|
Db|-5(x32)-7(x32)-2--|
Ab|-3------5------2--|
Eb|---------------0--|

Bridge: Guitar 2 (pickslide at 2:26)

eb|---------------------|
Bb|---------------------|
Gb|-9----9x-------------|
Db|-x----9x-------------|
Ab|-7----7x--x////////--|
Eb|----------x////////--|

eb|--------------------------------------------------------|
Bb|--------------------------------------------------------|
Gb|---------9---------12-----14---------9---------12-----7-|
Db|---------9---------12-----14---------9---------12-----7-|x2
Ab|--------------------------------------------------------|
Eb|-0-0-0-0---0-0-0-0----0-0----0-0-0-0---0-0-0-0----0-0---|
PM  . . . .   . . . .    . .    . . . .   . . . .    . .

eb|----------------------------------|
Bb|----------------------------------|
Gb|-16------14------12------11-------|
Db|-x-(x16)-x-(x16)-x-(x16)-x-(x16)--|x2
Ab|-14------12------10------9--------|
Eb|----------------------------------|

eb|-------------------------------------------------------------|
Bb|-------------------------------------------------------------|
Gb|-9-9-9-9-11-11-11-11-12-12-12-12-11-11-11-11-9-9-9-9-7-7-7-7-|
Db|-x-x-x-x-x--x--x--x--x--x--x--x--x--x--x--x--x-x-x-x-x-x-x-x-|
Ab|-7-7-7-7-9--9--9--9--10-10-10-10-9--9--9--9--7-7-7-7-5-5-5-5-|
Eb|-------------------------------------------------------------|

eb|-------------------------------------------------------------|
Bb|-------------------------------------------------------------|
Gb|-4-4-4-4-7-7-7-7-9-9-9-9-11-11-11-11-14-14-14-14-12-12-12-12-|
Db|-x-x-x-x-x-x-x-x-x-x-x-x-x--x--x--x--x--x--x--x--x--x--x--x--|
Ab|-2-2-2-2-5-5-5-5-7-7-7-7-9--9--9--9--12-12-12-12-10-10-10-10-|
Eb|-------------------------------------------------------------|

eb|---------------------------------------------------|
Bb|---------------------------------------------------|
Gb|-16-16-16-16-14-14-14-14-12-12-12-12-11-11-11-11-9-|
Db|-x--x--x--x--x--x--x--x--x--x--x--x--x--x--x--x--9-|
Ab|-14-14-14-14-12-12-12-12-10-10-10-10-9--9--9--9--7-|
Eb|---------------------------------------------------|

Bridge: guitar 3 (starts at 2:45)

eb|--------------------------------|
Bb|--------------------------------|
Gb|-9------11------12------11------|
Db|-x(x16)-x-(x16)-x-(x16)-x-(x16)-|
Ab|-7------9-------10------9-------|
Eb|--------------------------------|

Final Chorus: guitar one (light distortion until pickslide)

eb|--------------------------------------------|
Bb|--------------------------------------------|
Gb|------5-------7--------5--------------------|
Db|-2----5---5---7----2---5---5----------------|
Ab|-2----3---5---5----2---3---5--x////////////-|
Eb|-0--------3--------0-------3--x///////////--|

eb|------------------------------------------------------|
Bb|------------------------------------------------------|
Gb|--------------5-55-55-55-5--------------7-77-77-77-7--|
Db|-2-22-22-22-2-5-55-55-55-5-5-55-55-55-5-7-77-77-77-7--| x3
Ab|-2-22-22-22-2-3-33-33-33-3-5-55-55-55-5-5-55-55-55-5--|
Eb|-0-00-00-00-0--------------3-33-33-33-3-5-55-55-55-5--|

eb|----------------------------------------------|
Bb|----------------------------------------------|
Gb|--------------5-55-55-55-5--------------------|
Db|-2-22-22-22-2-5-55-55-55-5-5-55-55-55-5-7-4-2-|
Ab|-2-22-22-22-2-3-33-33-33-3-5-55-55-55-5-7-4-2-|
Eb|-0-00-00-00-0--------------3-33-33-33-3-5-2-0-|

Final Chorus: Guitar 2 (starts at 3:10 with light distortion until pickslide)

eb|------------------------------------|
Bb|------------------------------------|
Gb|-----7-----7-----7------------------|
Db|-4-5---4-5---4-5--------------------|
Ab|-------------------x//////////////--|
Eb|-------------------x/////////////---|

eb|-------------------------------------------------------------------------|
Bb|-------------------------------------------------------------------------|
Gb|-9-99-9-12-12-1111-9-99-9-12-12-1111-7-77-77-77-7-11-1111-11-12-12-14-14-|
Db|-x-xx-x-x--x--x-x--x-xx-x-x--x--x-x--x-xx-xx-xx-x-x--x-x--x--x--x--x--x--| x3
Ab|-7-77-7-10-10-9-9--7-77-7-10-10-9-9--5-55-55-55-5-9--9-9--9--10-10-12-12-|
Eb|-------------------------------------------------------------------------|

eb|------------------------------------------------------------|
Bb|------------------------------------------------------------|
Gb|-9-99-9-12-12-1111-9-99-9-12-12-1111-7-77-77-77-7-12--14--9-|
Db|-x-xx-x-x--x--x-x--x-xx-x-x--x--x-x--x-xx-xx-xx-x-x---x---x-|
Ab|-7-77-7-10-10-9-9--7-77-7-10-10-9-9--5-55-55-55-5-10--12--7-|
Eb|------------------------------------------------------------|
Tap to rate this tab
 
# A B C D E F G H I J K L M N O P Q R S T U V W X Y Z