Rise Against - Chamber The Cartridge Live tab

Tabbed by: Mitch Mullvain (Guitarfreak147) 
Tuning: Half step down (Eb Ab Db Gb Bb eb)
/ = Slide

INTRO                                                  x2
eb|--------------------------------------------------------|
Bb|--------------------------------------------------------|
Gb|6--8/9--8/9/11\9\8/9\8\6\4/6--8/9--8/9/11\9\8/13\11\9\8-|
Db|x--x-x--x-x-x--x-x-x-x-x-x-x--x-x--x-x-x--x-x-x--x--x-x-|
Ab|4--6/7--6/7/9-\7\6/7\6\4\2/4--6/7--6/7/9-\7\6/11\9-\7\6-|
Eb|--------------------------------------------------------|

End Intro      
eb|---|
Bb|---|
Gb|6--|
Db|---|
Ab|4--|
Eb|---|

Down beyond these city streets through gutters filled with black debris, 
in alleys void of any light where nameless things live out of sight.
Down through the scrapers of the sky past neon words glowing all night 
echoes my name between each car: "Are you happy where you are" 

VERSE                 x4
eb|-------------------|
Bb|-------------------|
Gb|6-66-6666-9999-----|
Db|6-66-6666-9999-9999|
Ab|4-44-4444-7777-9999|
Eb|---------------7777|

Blind to this impending fate 
we let the world carry our weight.
It's back breaks with every mile
but we all live in denial

PRE CHORUS       x2                         
eb|------------------------|----------------|
Bb|------------------------|----------------|
Gb|------------------------|9-----------4---|
Db|------------------------|9---9---4---4---|
Ab|------------------------|7---9---4---2---|
Eb|44-544-444-544-444-544-2|----7---2-------|

Can we be saved? Has the damage all been done?
Is it too late to reverse what we've become?
A lesson to learn at a crucial point in time
What's mine was always yours and yours is mine.

CHORUS                        x2
eb|------------------------------------------|
Bb|------------------------------------------|
Gb|66666666----------999999999---------------|
Db|66666666-77777777-999999999-99999999------|
Ab|44444444-77777777-777777777-99999999------|
Eb|---------55555555-----------77777777------|

FILL 2    
eb|------------------|
Bb|------------------|
Gb|6-6--18-18-18-18--|
Db|6-6--x--x--x--x---|
Ab|4-4--16-16-16-16--|
Eb|------------------| 

VERSE
And so we carry on each day, as if our lifes are not so grey,
while every breath that we take we only suffocate.
Brush past a myriad of scenes a homeless vet crashed on wall street,
A single mom of three, a TV personality!

PRE CHORUS

CHORUS

eb|-----|
Bb|-----|
Gb|6~---|
Db|6~---|
Ab|4~---|
Eb|-----|

Save us, from what we have become tonight.

BRIDGE 1                            x3
eb|-----------------------------------------|  Alternate between 1 and 2
Bb|-----------------------------------------|  each time
Gb|66666666-9999---------------9999-11111111|
Db|66666666-9999-9999-44444444-9999-11111111|
Ab|44444444-7777-9999-44444444-7777-9-9-9-9-|
Eb|--------------7777-22222222--------------|  
 
Eyes, glazed with distrust, No sense of wrong or right                     
Bridge 2                                    x3
eb|---------------------------------------------|
Bb|---------------------------------------------|
Gb|66666666-9999-------------9-------11---------|
Db|66666666-9999-9999-444444-9---9---11--9------|
Ab|44444444-7777-9999-444444-7---9---9---9------|
Eb|--------------7777-222222-----7-------7------|

INTRO played once

CHORUS played 3 times
Tap to rate this tab
 
# A B C D E F G H I J K L M N O P Q R S T U V W X Y Z