Song name
# A B C D E F G H I J K L M N O P Q R S T U V W X Y Z

Rise Against - Prayer Of The Refugee chords

Highlighted       Show chord diagrams
Song:  Rise Against -Prayer Of The Refugee

Hey I experienced some chord tabs of Rise Against really failing... 
so I made myself 1 by ears..  Comments are welcome

IMPORTANT NOTE!!!
The tuning of the official song is half-step down.. 
but this tab is already transposed to normal tuning..

If you want to play it like the official... tune ur guitar half-step down 
and let ultimate-guitar do the +1 transposing (so you get proper chord shapes)

At the intro I like to NOT play the low E and A string cause i dont like it..
otherwise just play 8's

I also like to continue playing intro at beginning, after each chorus, and after solo..

HAVE FUN PLAYING!

Intro:

     Ebm        Ebm9      4x
E ||--6----6----6----6--||
B ||--7----7----6----6--||
G ||--8----8----8----8--||
D ||--8----8----8----8--||
A ||--------------------|| 
E ||--------------------||

Verse 1:
Ebm		      B
Warm yourself by the fire, son
          C#		   Ab
And the morning will come soon.
Ebm			     B
Iíll tell you stories of a better time,
        C#		 Ebm
In a place that we once knew.

Ebm
Before we packed our bags
     B		    C#		    Ab
And left all this behind us in the dust,
Ebm			      B
We had a place that we could call home,
        C#	         Ebm
And a life no one could touch.

 
Chorus:
              Ebm
Donít hold me up now,
                F#
I can stand my own ground,
                   C#
I donít need your help now,
                 B
You will let me down, down, down!
              Ebm
Donít hold me up now,
                F#
I can stand my own ground,
                   C#
I donít need your help now,
                 B                      B ~
You will let me down, down, down!	Down!

Verse 2:
Ebm			     B
We are the angry and the desperate
      C#	             Ab
The hungry, and the cold,
Ebm			   B
We are the ones who kept quiet,
	    C#	             Ebm
And always did what we were told.
Ebm				    B
But weíve been sweating while you slept so calm,
	C#		Ab
In the safety of your home.
Ebm			     B
Weíve been pulling out the nails that hold up
C#		    Ebm
Everything youíre known.

Chorus:
              Ebm
Donít hold me up now,
                F#
I can stand my own ground,
                   C#
I donít need your help now,
                 B
You will let me down, down, down!
              Ebm
Donít hold me up now,
                F#
I can stand my own ground,
                   C#
I donít need your help now,
                 B                   
You will let me down, down, down!	

Bridge:
Abm	      F#
So open your eyes child,
		Abm
Letís be on our way.
		    F#
Broken windows and ashes
		Abm
Are guiding the way.
		F#
Keep quiet no longer,
			E
Weíll sing through the day,
			Ebm
Of the lives that weíve lost,
			B	F# -  C#
And the lives weíve reclaimed.

Go!

Solo:
                                            3x           
E ||-----------------------------------------||-------------------------------------|
B ||-----------------------------------------||-------------------------------------|
G ||--8--8--8--8--8--10--10--10--11--11--11--||--8--8--8--8--8--8--6----------------|
D ||-----------------------------------------||-------------------------------------|
A ||-----------------------------------------||-------------------------------------|
E ||-----------------------------------------||-------------------------------------|

E  ---6-----6--7--6------6------6--7--6--------------------------------6--6--6--6~--|
B  ------7-----------9------7------------9--9--9--9--9--9--9--9--9--7---------------|
G  ---------------------------------------------------------------------------------|     
D  ---------------------------------------------------------------------------------|
A  ---------------------------------------------------------------------------------|
E  ---------------------------------------------------------------------------------|

Chorus:
              Ebm
Donít hold me up now,
                F#
I can stand my own ground,
                   C#
I donít need your help now,
                 B
You will let me down, down, down!
              Ebm
Donít hold me up now,
                F#
I can stand my own ground,
                   C#
I donít need your help now,
                 B                   
You will let me down, down, down!

Outro

Ebm		    F#
Donít hold me upÖ
(I donít need your help, Iíll stand my ground)
C#		
Donít hold me upÖ
(I donít need your help)
B
No! No! No!

Ebm		    F#
Donít hold me up!
(I donít need your help, Iíll stand my ground)
C#
Donít hold me up!
(I donít need your help, Iíll stand my ground)
	      B			     Ebm
Donít let me down, down, down, down, down!
Tap to rate this tab
 
# A B C D E F G H I J K L M N O P Q R S T U V W X Y Z