Song name
# A B C D E F G H I J K L M N O P Q R S T U V W X Y Z

Rise Against - Broken Mirrors tab

There is a second guitar - checkt the other tabs out for that one.

| Guitar 1 (Block the Strings at the 2nd fret, then slide up)
| |------------------------|---------------------------|--------------------|
| |-----------------------o|x4------------------------o|x8------------------|
| |------------------------|---------------------------|----///////////////-|
| |-x-x-x-x-x-/-x-8--9-9---|----x-x-x-x-/-x-8--9-9-9---|----// Pickslide //-|
| |-x-x-x-x-x-/-x-8--9-9--o|x4--x-x-x-x-/-x-8--9-9-9--o|x8--///////////////-|
| |-x-x-x-x-x-/-x-6--7-7---|----x-x-x-x-/-x-6--7-7-7---|--------------------|
| Guitar 2 (sets in after the 4th repeat.)
| |-------------------------------------------------------------------------|
| |-------------------------------------------------------------------------|
| |-12~-11~-10~-9~--12~-14~-11~-9~------------------------------------------|
| |-------------------------------------------------------------------------|
| |-------------------------------------------------------------------------|
Verse
|-x-x-x-------------|----x-x-x-x--------|-------------------|---------------|
|-x-x-x------------o|x8--x-x-x-x--------|------------------0|x2-------------|
|-x-x-x-7--9-9--9---|----x-x-x-x--7~----|-------12--12-12---|---7~----------|
|-x-x-x-7--9-9--9---|----x-x-x-x--7~-7~-|-2-x-x-12--12-12---|---7~-7~--2~---|
|-x-x-x-5--7-7--7--o|x8--x-x-x-x--5~-7~-|-2-x-x-10--10-10--0|x2-5~-7~--2~---|
|-x-x-x-------------|----x-x-x-x-----5~-|-0-x-x-------------|------5~--0~---|
Chorus
|-------------|--------------------------|------------------------|---------|
|------------o|x4------------------------|-----------------------o|x4-------|
|-------------|--------------------------|------------------------|---------|
|----5~-------|----x-x-x-x-x-/-x-8--9-9--|-x-x-x-x-/-x-8--9-9-9---|---------|
|-2~-3~-5-5--o|x4--x-x-x-x-x-/-x-8--9-9--|-x-x-x-x-/-x-8--9-9-9--o|x4-------|
|-0~----3-2---|----x-x-x-x-x-/-x-6--7-7--|-x-x-x-x-/-x-6--7-7-7---|---------|
Guitar2 plays the same as in the intro.
Verse (first Silence)
|-x-x-x-------------|----x-x-x-x---------|-------------------|--------------|
|-x-x-x------------o|x4--x-x-x-x---------|------------------o|x2------------|
|-x-x-x-7--9-9--9---|----x-x-x-x---7~----|-------12--12-12---|---7~---------|
|-x-x-x-7--9-9--9---|----x-x-x-x---7~-7~-|-2-x-x-12--12-12---|---7~-7~------|
|-x-x-x-5--7-7--7--o|x4--x-x-x-x---5~-7~-|-2-x-x-10--10-10--o|x2-5~-7~------|
|-x-x-x-------------|----x-x-x-x------5~-|-0-x-x-------------|------5~------|
Interlude
|----------------------------------------------------------|--------------|
|----------------------------------------------------------|-------------o|x4
|-12-12-12-12-12-12-12-12-12-12-11-11-11-11-11-11-11-11-11-|--------------|
|-12-12-12-12-12-12-12-12-12-12-11-11-11-11-11-11-11-11-11-|----5~--------|
|-10-10-10-10-10-10-10-10-10-10-9--9--9--9--9--9--9--9--9--|-2~-3~-5-5---o|x4
|----------------------------------------------------------|-0~----3-2----|
Bridge
|-------------------------------------------------------------------------|
|-----------------------------------------------------------------------o-|x8
|-9---------12-----14---------9---------14-----9--------------------------|
|-7---------10-----12---------7---------12-----7--------------------------|
|-7-0-0-0-0-10-0-0-12-0-0-0-0-7-0-0-0-0-12-0-0-7-0-0-0-0----------------o-|x8
|---0-0-0-0----0-0----0-0-0-0---0-0-0-0----0-0---0-0-0-0------------------|
    . . . .    . .    . . . .   . . . .    . .   . . . .
Outro
|----|----|-----|-------------|-------------|-------------------------------|
|---o|x22-|---o-|x22----------|------------o|x4-----------------------------|
|----|----|-----|-------------|-------------|-------------------------------|
|-5--|----|-7---|-------5-----|----5~-------|-------------------------------|
|-5-o|x22-|-7-o-|x22-2~-3-5-5-|-2~-3~-5-5--o|x4-2~--------------------------|
|-3--|----|-5---|----0~---3-2-|-0~----3-2---|---0~--------------------------|
                        . . .
Tap to rate this tab
 
# A B C D E F G H I J K L M N O P Q R S T U V W X Y Z