Song name
# A B C D E F G H I J K L M N O P Q R S T U V W X Y Z

Rise Against - Life Less Frightening tab

1/2 step down.

Intro:

Guitar 1:
e|-------------------------|       e|-------------------------|
b|-------------------------|       b|-------------------------|
g|-10--9-10--9-10--9-10--9-|  x8   g|-9-999--7-9-10---9-10-12-|
d|-10-10-10-10-10-10-10-10-|       d|-x-xxx--x-x--x---x--x-xx-|
a|-------------------------|       a|-7-777--5-7--8---7--8-10-|
e|-------------------------|       e|-------------------------|

Guitar 2:
                                   e|--------------------|
                                   b|--------------------|
                                   g|--------------------|
                                   d|-2-222222-3-33-5-55-|
                                   a|-2-222222-3-33-5-55-|
                                   e|-0-000000-1-11-3-33-|

Main Riff:

Guitar 1:
e|----------------------------------------------------------------
b|----------------------------------------------------------------
g|------99-1010---1212--5555-7777--------99-1010---1212--5555-7444
d|-77---xx--x-x---xxxx--xxxx-xxxx---77---xx--x-x---xxxx--xxxx-xxxx
a|-xx---77--8-8---1010--3333-5555---xx---77--8-8---1010--3333-5222
e|-55-------------------------------55----------------------------

e|-----------------------------------------------------------|
b|-----------------------------------------------------------|
g|------99-1010--1212--5555-7777----9-999--7-9-10---9-10--12-|
d|-77---xx--x-x--xxxx--xxxx-xxxx----x-xxx--x-x--x---x--x--xx-|
a|-xx---77--8-8--1010--3333-5555----7-777--5-7--8---7--8--10-|
e|-55--------------------------------------------------------|

Guitar 2:
e|----------------------------------------------|
b|----------------------------------------------|
g|--------------------      --------------------|
d|-77777777-3333-5555- (x3) -22222222-3333-5555-|
a|-77777777-3333-5555--------22222222-3333-5555-|
e|-55555555-1111-3333--------00000000-1111-3333-|


Verse:

Both Guitars:
e|-----------/p--/---------------------|
b|-----------/i-s/---------------------|
g|-----------/c-l/---------------------|
d|-7~--------/k-i/--22222222-3333-5555-|
a|-7~--------/--d/--22222222-3333-5555-|
e|-5~--------/--e/--00000000-1111-3333-|

e|------------------------------------------------------------|
b|------------------------------------------------------------|
g|--9---9---9---9---5---5---7---7----    ---------------------|
d|----7---7---7---7---3---3---5---5--(x3)--22222222-3333-5555-|
a|-----------------------------------------22222222-3333-5555-|
e|-----------------------------------------00000000-1111-3333-|


Chorus:

Both Guitars:
e|----------------------------------------------------------------------|
b|----------------------------------------------------------------------|
g|-22222222--------55555555--------22222222--------5555555599991010--99-|
d|-22222222333333335555555555555555222222223333333355555555xxxx-x-x--xx-|
a|-000000003333333333333333555555550000000033333333333333337777-8-8--77-|
e|---------11111111--------33333333--------11111111--------0000-0-0--00-|

Bridge: (after bass solo)
e|----------------------------------------------------------------------|
b|----------------------------------------------------------------------|
g|----------9999-77-55       1010101010101010-99999999-7777777777777777-|
d|-77777777-xxxx-xx-xx  (x2)  x-x-x-x-x-x-x-x-xxxxxxxx-xxxxxxxxxxxxxxxx-|
a|-77777777-7777-55-33--------8-8-8-8-8-8-8-8-77777777-5555555555555555-|
e|-55555555-------------------------------------------------------------|


Order:
Intro
Main Riff
Verse
Chorus
Verse
Chorus
Bridge
Chorus

End On:
e|----|
b|----|
g|----|
d|-7~-|
a|-7~-|
e|-5~-|   
Tap to rate this tab
 
# A B C D E F G H I J K L M N O P Q R S T U V W X Y Z