Song name
# A B C D E F G H I J K L M N O P Q R S T U V W X Y Z

Rise Against - Make It Stop Septembers Children tab

Intro (with tremolo effect)

------------------------------------------------------------------------------|
------------------------------------------------------------------------------|
------6-------8---------------------------------------------------------------|
--8---6---6---8---------------------------------------------------------------|
--8---4---6---6---------------------------------------------------------------|
--6-------4-------------------------------------------------------------------|


Riff A


-----------------------------------------------------------------------|
-----------------------------------------------------------------------|
-----------------------------------------------------------------------|
-------8---------6-----------------------------------------------------|
----------8---------9--8---4---6-/-8--------6----8--9---8--------------|
---6----------9--------------------------9-----------------------------|

-----------------------------------------------------------------------|
-----------------------------------------------------------------------|
-----------------------------------------------------------------------|
-------8---------6-----------------------------------------------------|
----------8---------9--8---4-/-6-----------6----8---6------------------|
---6----------9-----------------------9-----------------9-----6--------|


Verse (same chords from intro, Only palm muted)

"Bang bang..."

------------------------------------------------------------------------------|
------------------------------------------------------------------------------|
------6-------8---------------------------------------------------------------|
--8---6---6---8---------------------------------------------------------------|
--8---4---6---6---------------------------------------------------------------|
--6-------4-------------------------------------------------------------------|


Prechorus

"What God could damn a heart...."

-----------------------------------------------------------------------------|
-----------------------------------------------------------------------------|
-----------------------------------------------------------------------------|
---4----6----8-----6----4----8-----------------------------------------------|
---4-x8-6-x8-8-x12-6-x4-4-x8-8-x4--Stop--------------------------------------|
---2----4----6-----4----2----4-----------------------------------------------|

Chorus (Chords from the intro again only not palm muted)


"Make It Stop...."


------------------------------------------------------------------------------|
------------------------------------------------------------------------------|
------6-------8---------------------------------------------------------------|
--8---6---6---8---------------------------------------------------------------|
--8---4---6---6---------------------------------------------------------------|
--6-------4-------------------------------------------------------------------|

Bridge

"Whoah oh oh oh oh ohhhh..."

Just repeat the intro and then Riff A

then repeat everything up to this point.

*note: when You get to the second prechorus, the chords are held out, not strummed.

Breakdown

"A cold river washed them away...."


--------------------------_|--------------------------------------------|
---------------------------|--------------------------------------------|
---------------------------|--repeat x3---------------------------------|
---8----6----4----6--------|-----then-----4-----6------4----6-----------|
---8-x8-6-x8-4-x8-6-x8-----|--------------4-x8--6-x8---4-x8-6-x8--------|
---6----4----2----4-------_|--------------2-----4------2----4-----------|

When he starts to announce the names of the kids who died, you just play the intro 
chords again.

------------------------------------------------------------------------------|
------------------------------------------------------------------------------|
------6-------8---------------------------------------------------------------|
--8---6---6---8---------------------------------------------------------------|
--8---4---6---6---------------------------------------------------------------|
--6-------4-------------------------------------------------------------------|

Then the chorus again and again and then the song is over. Its an awesome and important
song. The tab is much more accurate than the others, especially the Riff A part so if
you tried to learn it and it didnt sound right, don't get discouraged. Any questions or 
corrections contact taylor4525@gmail.com. Thankyou
Tap to rate this tab
 
# A B C D E F G H I J K L M N O P Q R S T U V W X Y Z