Rise Against - This Is Letting Go tab

-------------------------------------------------------------------------------
			     This Is Letting Go  Rise Against
-------------------------------------------------------------------------------
Tabbed by: stratotastic

Tuning: Half step down
Guitar 1: Lead Guitar, Guitar 2: Rhythm Guitar

This tab goes into more detail than the others out there and is tabbed in a
half-step down tuning (which is what I think Rise Against plays in mostly).
Some lyrics are beneath the respective parts of the song.

Intro ---

Guitar 2:
eb|----------------|
Bb|2---------------|
Gb|2---------------| Fade out, then back in.
Db|4---------------|
Ab|4---------------|
Eb|2---------------|


Guitar 1:
eb|----------------|----------------|----------------|--------5---4---|
Bb|2---------------|----------------|----------------|----5/7---------|
Gb|----------------|----------------|----------------|----------------|
Db|----------------|----------------|----------------|----------------|
Ab|----------------|----------------|----------------|----------------|
Eb|----------------|----------------|----------------|----------------|

Guitar 2:
eb|----------------|----------------|----------------|----------------|
Bb|----------------|----------------|----------------|----------------|
Gb|11--111111111111|7---7-7-7-7-7-7-|----------------|9---9-9-9-9-9-9-|
Db|11--111111111111|7---7-7-7-7-7-7-|7---7-7-7-7-7-7-|9---9-9-9-9-9-9-|
Ab|9---9-9-9-9-9-9-|5---5-5-5-5-5-5-|7---7-7-7-7-7-7-|7---7-7-7-7-7-7-|
Eb|----------------|----------------|5---5-5-5-5-5-5-|----------------|


Guitar 1:
eb|2---------------|--------5-------|----------------|----------------|
Bb|--------2-------|5---------------|5---------------|----------------|
Gb|----------------|----------------|----------------|----4h6-4---2---|
Db|----------------|----------------|----------------|----------------|
Ab|----------------|----------------|----------------|----------------|
Eb|----------------|----------------|----------------|----------------|

Guitar 2:                             PM . . . . . .  . . . .
eb|----------------|----------------|----------------|----------------|
Bb|----------------|----------------|----------------|----------------|
Gb|11--111111111111|7---7-7-7-7-7-7-|----------------|----------------|
Db|11--111111111111|7---7-7-7-7-7-7-|2---2-2-2-2-2-2-|2-2-2-2-2-2-2-2-|
Ab|9---9-9-9-9-9-9-|5---5-5-5-5-5-5-|2---2-2-2-2-2-2-|2-2-2-2-2-2-2-2-|
Eb|----------------|----------------|0---0-0-0-0-0-0-|0-0-0-0-0-0-0-0-|


Guitar 1:
eb|----------------|----------------|----------------|--------5---4---|
Bb|----------------|----------------|----------------|----5/7---------|
Gb|----------------|----------------|----------------|4---------------|
Db|2/4-4-4-4-4-4\2-|2/4-4-4-4-4-4\2-|2/4-4-4-4-4-4\2-|----------------|
Ab|----------------|----------------|----------------|----------------|
Eb|----------------|----------------|----------------|----------------|

Guitar 2:
eb|----------------|----------------|----------------|----------------|
Bb|----------------|----------------|----------------|----------------|
Gb|11--111111111111|7---7-7-7-7-7-7-|----------------|9---9-9-9-9-9-9-|
Db|11--111111111111|7---7-7-7-7-7-7-|7---7-7-7-7-7-7-|9---9-9-9-9-9-9-|
Ab|9---9-9-9-9-9-9-|5---5-5-5-5-5-5-|7---7-7-7-7-7-7-|7---7-7-7-7-7-7-|
Eb|----------------|----------------|5---5-5-5-5-5-5-|----------------|


Guitar 1:
eb|2---------------|3/5-----7-------|----------------|5p4h5p4h5p4h5p4-|
Bb|--------2-------|----------------|5---------------|----------------|
Gb|----------------|----------------|----------------|----------------|
Db|----------------|----------------|----------------|----------------|
Ab|----------------|----------------|----------------|----------------|
Eb|----------------|----------------|----------------|----------------|

Guitar 2:                             PM . . . . . .  . . . .
eb|----------------|----------------|----------------|----------------|
Bb|----------------|----------------|----------------|----------------|
Gb|11--111111111111|7---7-7-7-7-7-7-|----------------|----------------|
Db|11--111111111111|7---7-7-7-7-7-7-|2---2-2-2-2-2-2-|2-2-2-2-2-2-2-2-|
Ab|9---9-9-9-9-9-9-|5---5-5-5-5-5-5-|2---2-2-2-2-2-2-|2-2-2-2-2-2-2-2-|
Eb|----------------|----------------|0---0-0-0-0-0-0-|0-0-0-0-0-0-0-0-|

Verse 1 ---

Guitar 1:
eb|----------------|----------------|----------------|----------------|
Bb|----------------|----------------|----------------|----------------|
Gb|----------------|----------------|----------------|--------------11|
Db|4\--------------|----------------|----------------|--------------11|
Ab|4\--------------|----------------|----------------|--------------9-|
Eb|2\--------------|----------------|----------------|----------------|

Guitar 2:
PM . . . . . . . .  . . . . . . . .  . . . . . . . .  . . . . . . . .
eb|----------------|----------------|----------------|----------------|
Bb|----------------|----------------|----------------|----------------|
Gb|1111111111111111|7-7-7-7-7-7-7-7-|----------------|9-9-9-9-9-9-9-9-|
Db|1111111111111111|7-7-7-7-7-7-7-7-|7-7-7-7-7-7-7-7-|9-9-9-9-9-9-9-9-|
Ab|9-9-9-9-9-9-9-9-|5-7-5-5-5-5-5-5-|7-7-7-7-7-7-7-7-|7-7-7-7-7-7-7-7-|
Eb|----------------|----------------|5-5-5-5-5-5-5-5-|----------------|
   Once upon a time...

Guitar 1:
eb|----------------|----------------|----------------|----------------|
Bb|----------------|----------------|----------------|----------------|
Gb|11--------------|----------------|----------------|----------------|
Db|11--------------|----------------|----------------|----------------|
Ab|9---------------|----------------|----------------|----------------|
Eb|----------------|----------------|----------------|----------------|

Guitar 2:
  PM . . . . . . .  . . . . . . . .    . . . . . . .
eb|----------------|----------------|----------------|----------------|
Bb|----------------|----------------|----------------|----------------|
Gb|1111111111111111|7-7-7-7-7-7-7-7-|----------------|9-9-9-9-9-9-9-9-|
Db|1111111111111111|7-7-7-7-7-7-7-7-|7-7-7-7-7-7-7-7-|9-9-9-9-9-9-9-9-|
Ab|9-9-9-9-9-9-9-9-|5-5-5-5-5-5-5-5-|7-7-7-7-7-7-7-7-|7-7-7-7-7-7-7-7-|
Eb|----------------|----------------|5-5-5-5-5-5-5-5-|----------------|


Guitar 1:
eb|12--------------|12b14-----------|9---------------|7---------------|
Bb|----------------|----------------|----------------|----------------|
Gb|----------------|----------------|----------------|----------------|
Db|----------------|----------------|----------------|----------------|
Ab|----------------|----------------|----------------|----------------|
Eb|----------------|----------------|----------------|----------------|

Guitar 2:
  PM . . . . . . .  . . . . . . . .  . . . . . . . .  . . . . . . . .
eb|----------------|----------------|----------------|----------------|
Bb|----------------|----------------|----------------|----------------|
Gb|1111111111111111|7-7-7-7-7-7-7-7-|----------------|9-9-9-9-9-9-9-9-|
Db|1111111111111111|7-7-7-7-7-7-7-7-|7-7-7-7-7-7-7-7-|9-9-9-9-9-9-9-9-|
Ab|9-9-9-9-9-9-9-9-|5-5-5-5-5-5-5-5-|7-7-7-7-7-7-7-7-|7-7-7-7-7-7-7-7-|
Eb|----------------|----------------|5-5-5-5-5-5-5-5-|----------------|


Guitar 1:
eb|----------------|----------------|----------------|----------------|
Bb|2---------------|5-----3-----2---|----------------|----------------|
Gb|------4---------|----------------|4---------------|4---------------|
Db|----------------|----------------|----------------|----------------|
Ab|----------------|----------------|----------------|----------------|
Eb|----------------|----------------|----------------|----------------|

Guitar 2:
  PM . . . . . . .  . . . . . . . .    . . . . . . .
eb|----------------|----------------|----------------|----------------|
Bb|----------------|----------------|----------------|----------------|
Gb|1111111111111111|7-7-7-7-7-7-7-7-|----------------|9-9-9-9-9-9-9-9-|
Db|1111111111111111|7-7-7-7-7-7-7-7-|7-7-7-7-7-7-7-7-|9-9-9-9-9-9-9-9-|
Ab|9-9-9-9-9-9-9-9-|5-5-5-5-5-5-5-5-|7-7-7-7-7-7-7-7-|7-7-7-7-7-7-7-7-|
Eb|----------------|----------------|5-7-5-5-5-5-5-5-|----------------|

Pre-Chorus ---

Guitars 1 and 2:                                      Pickslide here
eb|----------------|----------------|----------------|----------------|
Bb|----------------|----------------|----------------|----------------|
Gb|7-----6-6-----4-|4-----2-2-------|----------------|----------------|
Db|7-----6-6-----4-|4-----2-2-----2-|2---------------|----------------|
Ab|5-----4-4-----2-|2-----0-0-----2-|2---------------|X\--------------|
Eb|----------------|--------------0-|0---------------|X\--------------|
...grave

Chorus ---

Guitar 1:
eb|----------------|----------------|----------------|----------------| --- |
Bb|----------------|----------------|----------------|----------------|  -- |
Gb|--------14--13--|----14--14------|--------13--14--|----13--13\-9---|  -- |
Db|--------X---X---|----X---X-------|----14--X---X---|----X---X---X---|  -- |
Ab|--------12--11--|----12--12--X\--|----X---11--12--|----11--11\-7---|  -- |
Eb|----------------|------------X\--|----12----------|----------------|  -- |
                                                                          |
Guitar 2:                                                                 |
eb|----------------|----------------|----------------|----------------|   |
Bb|----------------|----------------|----------------|----------------|   |
Gb|----------------|----------------|----------------|----------------|   |
Db|7---7---7-7-7-7-|--7-7-7-7-7-7-7-|2---2---2-2-2-2-|--2-2-2-2-2-2-2-|   |
Ab|7---7---7-7-7-7-|--7-7-7-7-7-7-7-|2---2---2-2-2-2-|--2-2-2-2-2-2-2-|   |
Eb|5---5---5-5-5-5-|--5-5-5-5-5-5-5-|0---0---0-0-0-0-|--0-0-0-0-0-0-0-|   |
   alone     Cause I will follow                                          |
                                                                          X2
Guitar 1:                                                                 |
eb|----------------|----------------|----------------|----------------|   |
Bb|----------------|----------------|----------------|----------------|   |
Gb|6---6---6---6---|6---6---6---6---|11----9-----7---|7---7---7---7---|   |
Db|X---X---X---X---|X---X---X---X---|X-----X-----X---|X---X---X---X---|   |
Ab|4---4---4---4---|4---4---4---4---|9-----7-----5---|5---5---5---5---|   |
Eb|----------------|----------------|----------------|----------------|   |
                                                                          |
Guitar 2:                                                                 |
eb|----------------|----------------|----------------|----------------|  -- |
Bb|----------------|----------------|----------------|----------------|  -- |
Gb|----------------|----------------|7-7-7-7-7-7-7-7-|7-7-7-7-7-7-7-7-|  -- |
Db|4---4---4-4-4-4-|--4-4-4-4-4-4-4-|7-7-7-7-7-7-7-7-|7-7-7-7-7-7-7-7-|  -- |
Ab|4---4---4-4-4-4-|--4-4-4-4-4-4-4-|5-5-5-5-5-5-5-5-|5-5-5-5-5-5-5-5-|  -- |
Eb|2---2---2-2-2-2-|--2-2-2-2-2-2-2-|----------------|----------------|---- |

Bridge 1 ---

Guitar 2:
eb|----------------|----------------|
Bb|----------------|----------------|
Gb|7---7-7---7-7-7-|9---9-9---9-9-9-|
Db|7---7-7---7-7-7-|9---9-9---9-9-9-|
Ab|5---5-5---5-5-5-|7---7-7---7-7-7-|
Eb|----------------|----------------|
my own

Guitar 1:
eb|----------------|----------------|--------9h10--7-|--------5---4---|
Bb|5/7-10--109-7-10|12-12\10--9h10p9|10--1010--------|----5/7---------|
Gb|----------------|----------------|----------------|----------------|
Db|----------------|----------------|----------------|----------------|
Ab|----------------|----------------|----------------|----------------|
Eb|----------------|----------------|----------------|----------------|

Guitar 2:
eb|----------------|----------------|----------------|----------------|
Bb|----------------|----------------|----------------|----------------|
Gb|----------------|7---7-7-7-7-7-7-|----------------|9---9-9-9-9-9-9-|
Db|11--111111111111|7---7-7-7-7-7-7-|7---7-7-7-7-7-7-|9---9-9-9-9-9-9-|
Ab|9---9-9-9-9-9-9-|5---5-5-5-5-5-5-|7---7-7-7-7-7-7-|7---7-7-7-7-7-7-|
Eb|----------------|----------------|5---5-5-5-5-5-5-|----------------|


Guitar 1:
eb|2---------------|5-------5/7-----|4---------------|5p4h5p4h5p4h5p4-|
Bb|--------2-------|----------------|----------------|----------------|
Gb|----------------|----------------|----------------|----------------|
Db|----------------|----------------|----------------|----------------|
Ab|----------------|----------------|----------------|----------------|
Eb|----------------|----------------|----------------|----------------|

Guitar 2:
eb|----------------|----------------|----------------|----------------|
Bb|----------------|----------------|----------------|----------------|
Gb|----------------|7---7-7-7-7-7-7-|----------------|----------------|
Db|11--111111111111|7---7-7-7-7-7-7-|2---2-2-2-2-2-2-|2-2-2-2-2-2-2-2-|
Ab|9---9-9-9-9-9-9-|5---5-5-5-5-5-5-|2---2-2-2-2-2-2-|2-2-2-2-2-2-2-2-|
Eb|----------------|----------------|0---0-0-0-0-0-0-|0-0-0-0-0-0-0-0-|

Verse 2 ---

Guitar 1:
eb|----------------|----------------|----------------|----------------|
Bb|----------------|----------------|----------------|----------------|
Gb|11--------------|----------------|----------------|----------------|
Db|11--------------|----------------|----------------|----------------|
Ab|9---------------|----------------|----------------|----------------|
Eb|----------------|----------------|----------------|----------------|

Guitar 2:
  PM . . . . . . .  . . . . . . . .  . . . . . . . .  . . . . . . . .
eb|----------------|----------------|----------------|----------------|
Bb|----------------|----------------|----------------|----------------|
Gb|----------------|7-7-7-7-7-7-7-7-|----------------|9-9-9-9-9-9-9-9-|
Db|1111111111111111|7-7-7-7-7-7-7-7-|7-7-7-7-7-7-7-7-|9-9-9-9-9-9-9-9-|
Ab|9-9-9-9-9-9-9-9-|5-5-5-5-5-5-5-5-|7-7-7-7-7-7-7-7-|7-7-7-7-7-7-7-7-|
Eb|----------------|----------------|5-5-5-5-5-5-5-5-|----------------|
   This is the part...

Guitar 1:                            fade in
eb|----------------|----------------|9---------------|----------------|
Bb|----------------|----------------|----------------|----------------|
Gb|----------------|----------------|----------------|----------------|
Db|----------------|----------------|----------------|----------------|
Ab|----------------|----------------|----------------|----------------|
Eb|----------------|----------------|----------------|----------------|

Guitar 2:
  PM . . . . . . .  . . . . . . . .      . . . . . .
eb|----------------|----------------|----------------|----------------|
Bb|----------------|----------------|----------------|----------------|
Gb|----------------|7-7-7-7-7-7-7-7-|----------------|----------------|
Db|1111111111111111|7-7-7-7-7-7-7-7-|2-2-2-2-2-2-2-2-|2-2-2-2-2-2-2-2-|
Ab|9-9-9-9-9-9-9-9-|5-5-5-5-5-5-5-5-|2-2-2-2-2-2-2-2-|2-2-2-2-2-2-2-2-|
Eb|----------------|----------------|0-0-0-0-0-0-0-0-|0-0-0-0-0-0-0-0-|


Guitar 1:
eb|----------------|------------5---|7---------------|--------4-------|
Bb|----------------|------5---------|----------------|----------------|
Gb|----------------|4/6-------------|----------------|----------------|
Db|----------------|----------------|----------------|----------------|
Ab|----------------|----------------|----------------|----------------|
Eb|----------------|----------------|----------------|----------------|

Guitar 2:
eb|----------------|----------------|----------------|----------------|
Bb|----------------|----------------|----------------|----------------|
Gb|----------------|----------------|----------------|----------------|
Db|4---------------|----------------|7---------------|----------------|
Ab|4---------------|----------------|7---------------|----------------|
Eb|2---------------|----------------|5---------------|----------------|


Guitar 1:
eb|5---------------|------------2---|----------------|----------------|
Bb|----------------|------5---------|----------------|----------------|
Gb|----------------|6---------------|4---------------|1---------------|
Db|----------------|----------------|----------------|----------------|
Ab|----------------|----------------|----------------|----------------|
Eb|----------------|----------------|----------------|----------------|

Guitar 2:
eb|----------------|----------------|----------------|----------------|
Bb|----------------|----------------|----------------|----------------|
Gb|----------------|----------------|9---------------|9-9-9-9-9-9-9-9-|
Db|11--------------|----------------|9---------------|9-9-9-9-9-9-9-9-|
Ab|11--------------|----------------|7---------------|7-7-7-7-7-7-7-7-|
Eb|9---------------|----------------|----------------|----------------|

Pre-Chorus ---

Guitars 1 and 2:                                      Pickslide here
eb|----------------|----------------|----------------|----------------|
Bb|----------------|----------------|----------------|----------------|
Gb|7-----6-6-----4-|4-----2-2-------|----------------|----------------|
Db|7-----6-6-----4-|4-----2-2-----2-|2---------------|----------------|
Ab|5-----4-4-----2-|2-----0-0-----2-|2---------------|X\--------------|
Eb|----------------|--------------0-|0---------------|X\--------------|
...grave

Chorus ---  Same as first chorus for both guitars.


Bridge 2 ---  (The tempo slightly picks up here, but not much)

Guitars 1 and 2:
eb|----------------|----------------|----------------|----------------|
Bb|----------------|----------------|----------------|----------------|
Gb|----------------|------------X-X-|7---X-X-7---X-X-|7---X-X-7---X-X-|
Db|----------------|------------X-X-|7---X-X-7---X-X-|7---X-X-7---X-X-|
Ab|----------------|------------X-X-|5---X-X-5---X-X-|5---X-X-5---X-X-|
Eb|2---4---5---7---|----5---4-------|----------------|----------------|
me home

Guitar 1:
eb|----------------|----------------|----------------|----------------|
Bb|----------------|------------10--|----------------|9---------------|
Gb|----------------|------------9---|----------------|9---------------|
Db|7---6---4---2---|----2---4-------|----------------|----------------|
Ab|----------------|----------------|----------------|----------------|
Eb|----------------|----------------|----------------|----------------|

Guitar 2:
eb|----------------|----------------|----------------|----------------|
Bb|----------------|----------------|----------------|----------------|
Gb|----------------|----------------|----------------|----------------|
Db|----------------|------------7---|----------------|6---------------|
Ab|----------------|------------7---|----------------|6---------------|
Eb|2---4---5---7---|----5---4---5---|----------------|4---------------|

Bridge 3 ---

Guitar 1:
eb|----------------|----------------|----------------|----------------|
Bb|X-X-X-7-X-X-X-7-|X-X-X-X-5h7-X-7-|X-X-X-X-5h7-X-7-|X-X-X-X-5h7p5h7-|
Gb|----------------|----------------|----------------|----------------|
Db|----------------|----------------|----------------|----------------|
Ab|----------------|----------------|----------------|----------------|
Eb|----------------|----------------|----------------|----------------|

Guitar 2:
eb|----------------|----------------|----------------|----------------|
Bb|----------------|----------------|----------------|----------------|
Gb|----------------|----------------|----------------|----------------|
Db|4---------------|----------------|----------------|----------------|
Ab|4---------------|----------------|----------------|----------------|
Eb|2---------------|----------------|----------------|----------------|
   The wind died...

Guitar 1:
eb|----------------|----------------|----------------|----------------|
Bb|X-X-X-X-5h7-X-7-|X-X-X-X-5h7p5h7-|X-X-X-X-5h7-X-7-|X-X-X-X-5h7p5h7-|
Gb|----------------|----------------|----------------|----------------|
Db|----------------|----------------|----------------|----------------|
Ab|----------------|----------------|----------------|----------------|
Eb|----------------|----------------|----------------|----------------|

Guitar 2:                                    fade in
eb|----------------|----------------|----------------|----------------|
Bb|----------------|----------------|----------------|----------------|
Gb|----------------|----------------|----------------|----------------|
Db|----------------|----------------|----------------|----------------|
Ab|----------------|----------------|----------------|--------9-h-11--|
Eb|----------------|----------------|--------9-------|----------------|


Guitar 1:
eb|----------------|----------------|----------------|----------------|
Bb|X-X-X-X-5h7p5h7-|X-X-X-X-5h7p5h7-|X-X-X-X-5h7-X-7-|X-X-X-X-5h7p5h7-|
Gb|----------------|----------------|----------------|----------------|
Db|----------------|----------------|----------------|----------------|
Ab|----------------|----------------|----------------|----------------|
Eb|----------------|----------------|----------------|----------------|

Guitar 2:
eb|----------------|----------------|----------------|----------------|
Bb|----------------|----------------|----------------|----------------|
Gb|----------------|----------------|----------------|----------------|
Db|----------------|----------------|----------------|----------------|
Ab|9---------------|----------------|----------------|----------------|
Eb|----------------|----------------|----------------|----------------|


Guitar 1:
eb|----------------|----------------|----------------|----------------|
Bb|X-X-X-X-5h7p5h7-|X-X-X-X-5h7p5h7-|X-X-X-X-5h7p5h7-|----------------|
Gb|----------------|----------------|----------------|----------------|
Db|----------------|----------------|----------------|----------------|
Ab|----------------|----------------|----------------|----------------|
Eb|----------------|----------------|----------------|----------------|

Guitar 2:                           pickslide here
eb|----------------|----------------|----------------|----------------|
Bb|----------------|----------------|----------------|----------------|
Gb|----------------|----------------|----------------|----------------|
Db|----------------|----------------|----------------|----------------|
Ab|----------------|----------------|X\--------------|----------------|
Eb|----------------|----------------|X\--------------|----------------|

Bridge 4 ---

Guitar 1:
eb|----------------|----------------|----------------|----------------|
Bb|----------------|----------------|----------------|----------------|
Gb|11--11\99/11--11|--1111\99/1111--|11--11\99/11--11|--1111\99/1111--|
Db|X---X--XX-X---X-|--X-X--XX-X-X---|X---X--XX-X---X-|--X-X--XX-X-X---|
Ab|9---9\-77/9---9-|--9-9--77-9-9---|9---9\-77/9---9-|--9-9--77-9-9---|
Eb|----------------|----------------|----------------|----------------|

Guitar 2:
eb|----------------|----------------|----------------|----------------|
Bb|----------------|----------------|----------------|----------------|
Gb|--------------7-|--7-7-7-7-7-7-7-|----------------|----------------|
Db|4---4-4-4-4-4-7-|--7-7-7-7-7-7-7-|7---7-7-7-7-7-9-|--9-9-9-9-9-9-9-|
Ab|4---4-4-4-4-4-5-|--5-5-5-5-5-5-5-|7---7-7-7-7-7-9-|--9-9-9-9-9-9-9-|
Eb|2---2-2-2-2-2---|----------------|5---5-5-5-5-5-7-|--7-7-7-7-7-7-7-|
   The wind died... (2nd time)

Guitar 1:
eb|----------------|----------------|----------------|----------------|
Bb|----------------|----------------|----------------|----------------|
Gb|--------6---6---|4---2-------2---|4---4---2---2---|4---4-----------|
Db|2---4-----------|--------6-------|----------------|--------2---2---|
Ab|----------------|----------------|----------------|----------------|
Eb|----------------|----------------|----------------|----------------|

Guitar 2:
eb|----------------|----------------|----------------|----------------|
Bb|----------------|----------------|----------------|----------------|
Gb|--------------7-|--7-7-7-7-7-7-7-|----------------|----------------|
Db|4---4-4-4-4-4-7-|--7-7-7-7-7-7-7-|7---7-7-7-7-7-9-|--9-9-9-9-9-9-9-|
Ab|4---4-4-4-4-4-5-|--5-5-5-5-5-5-5-|7---7-7-7-7-7-9-|--9-9-9-9-9-9-9-|
Eb|2---2-2-2-2-2---|----------------|5---5-5-5-5-5-7-|--7-7-7-7-7-7-7-|


Guitar 1:
eb|----------------|----------------|----------------|----------------|
Bb|----------------|----------------|----------------|----------------|
Gb|11--11\99/11--11|--1111\99/1111--|11--11\99/11--11|--1111\99/1111--|
Db|X---X--XX-X---X-|--X-X--XX-X-X---|X---X--XX-X---X-|--X-X--XX-X-X---|
Ab|9---9\-77/9---9-|--9-9--77-9-9---|9---9\-77/9---9-|--9-9--77-9-9---|
Eb|----------------|----------------|----------------|----------------|

Guitar 2:
eb|----------------|----------------|----------------|----------------|
Bb|----------------|----------------|----------------|----------------|
Gb|--------------7-|--7-7-7-7-7-7-7-|----------------|----------------|
Db|4---4-4-4-4-4-7-|--7-7-7-7-7-7-7-|7---7-7-7-7-7-9-|--9-9-9-9-9-9-9-|
Ab|4---4-4-4-4-4-5-|--5-5-5-5-5-5-5-|7---7-7-7-7-7-9-|--9-9-9-9-9-9-9-|
Eb|2---2-2-2-2-2---|----------------|5---5-5-5-5-5-7-|--7-7-7-7-7-7-7-|


Guitar 1:
eb|----------------|----------------|----------------|----------------|
Bb|----------------|----------------|--------2---2---|3---3---5---5---|
Gb|--------6---6---|4---2-------2---|4---4-----------|----------------|
Db|2---4-----------|--------6-------|----------------|----------------|
Ab|----------------|----------------|----------------|----------------|
Eb|----------------|----------------|----------------|----------------|

Guitar 2:
eb|----------------|----------------|----------------|----------------|
Bb|----------------|----------------|----------------|----------------|
Gb|--------------7-|--7-7-7-7-7-7-7-|--------------4-|--4-/-6---------|
Db|4---4-4-4-4-4-7-|--7-7-7-7-7-7-7-|7---7-7-7-7-7-4-|--4-/-6---------|
Ab|4---4-4-4-4-4-5-|--5-5-5-5-5-5-5-|7---7-7-7-7-7-2-|--2-/-4---------|
Eb|2---2-2-2-2-2---|----------------|5---5-5-5-5-5---|----------------|


Guitar 2:
eb|----------------|----------------|----------------|----------------|
Bb|----------------|----------------|----------------|----------------|
Gb|6-6-6-6-6-6-6-6-|6-6-6-6-6-6-6-6-|9-9-9-9-9-9-9-9-|9-9-9-9-9-9-9-9-|
Db|6-6-6-6-6-6-6-6-|6-6-6-6-6-6-6-6-|9-9-9-9-9-9-9-9-|9-9-9-9-9-9-9-9-|
Ab|4-4-4-4-4-4-4-4-|4-4-4-4-4-4-4-4-|7-7-7-7-7-7-7-7-|7-7-7-7-7-7-7-7-|
Eb|----------------|----------------|----------------|----------------|


Guitar 2:
eb|----------------|----------------|----------------|----------------|
Bb|----------------|----------------|----------------|----------------|
Gb|----------------|----------------|----------------|----------------|
Db|7---------------|----------------|----------------|----------------|
Ab|7---------------|----------------|----------------|----------------|
Eb|5---------------|----------------|----------------|----------------|

Chorus 2 ---

Guitar 1:
eb|----------------|----------------|----------------|----------------|
Bb|----------------|----------------|----------------|----------------|
Gb|----------------|----------------|----------------|----------------|
Db|----------------|----------------|----------------|----------------|
Ab|----------------|----------------|----9-----7-----|----------------|
Eb|----------------|----------------|----------------|1010101010101010|

Guitar 2:
eb|----------------|----------------|----------------|----------------|
Bb|----------------|----------------|----------------|----------------|
Gb|----------------|----------------|7---7---7-7-7-7-|--7-7-7-7-7-7-7-|
Db|4---4---4-4-4-4-|--4-4-4-4-4-4-4-|7---7---7-7-7-7-|--7-7-7-7-7-7-7-|
Ab|4---4---4-4-4-4-|--4-4-4-4-4-4-4-|5---5---5-5-5-5-|--5-5-5-5-5-5-5-|
Eb|2---2---2-2-2-2-|--2-2-2-2-2-2-2-|----------------|----------------|
...giving up no this is letting go

Guitar 1: From here to the Outro Guitar 1 plays the same part as in the
          chorus.  It plays that part 3 times.

Guitar 2:
eb|----------------|----------------|----------------|----------------|
Bb|----------------|----------------|----------------|----------------|
Gb|----------------|----------------|----------------|----------------|
Db|7---7---7-7-7-7-|--7-7-7-7-7-7-7-|2---2---2-2-2-2-|--2-2-2-2-2-2-2-|
Ab|7---7---7-7-7-7-|--7-7-7-7-7-7-7-|2---2---2-2-2-2-|--2-2-2-2-2-2-2-|
Eb|5---5---5-5-5-5-|--5-5-5-5-5-5-5-|0---0---0-0-0-0-|--0-0-0-0-0-0-0-|


Guitar 2:
eb|----------------|----------------|----------------|----------------|
Bb|----------------|----------------|----------------|----------------|
Gb|----------------|----------------|7---7---7-7-7-7-|--7-7-7-7-7-7-7-|
Db|4---4---4-4-4-4-|--4-4-4-4-4-4-4-|7---7---7-7-7-7-|--7-7-7-7-7-7-7-|
Ab|4---4---4-4-4-4-|--4-4-4-4-4-4-4-|5---5---5-5-5-5-|--5-5-5-5-5-5-5-|
Eb|2---2---2-2-2-2-|--2-2-2-2-2-2-2-|----------------|----------------|


Guitar 2:
eb|----------------|----------------|----------------|----------------|
Bb|----------------|----------------|----------------|----------------|
Gb|----------------|----------------|----------------|----------------|
Db|7---7---7---7---|7---7---7---7---|2---2---2---2---|2---2---2---2---|
Ab|7---7---7---7---|7---7---7---7---|2---2---2---2---|2---2---2---2---|
Eb|5---5---5---5---|5---5---5---5---|0---0---0---0---|0---0---0---0---|


Guitar 2:
eb|----------------|----------------|----------------|----------------|
Bb|----------------|----------------|----------------|----------------|
Gb|----------------|----------------|7-7-7-7---7-7---|--7-7-7-7-7-7-7-|
Db|4---4---4---4---|4---4---4---4---|7-7-7-7---7-7---|--7-7-7-7-7-7-7-|
Ab|4---4---4---4---|4---4---4---4---|5-5-5-5---5-5---|--5-5-5-5-5-5-5-|
Eb|2---2---2---2---|2---2---2---2---|----------------|----------------|


Guitar 2:
eb|----------------|----------------|----------------|----------------|
Bb|----------------|----------------|----------------|----------------|
Gb|----------------|----------------|----------------|----------------|
Db|7---7---7---7---|7---7---7---7---|2---2---2---2---|2---2---2---2---|
Ab|7---7---7---7---|7---7---7---7---|2---2---2---2---|2---2---2---2---|
Eb|5---5---5---5---|5---5---5---5---|0---0---0---0---|0---0---0---0---|


Guitar 2:
eb|----------------|----------------|----------------|----------------|
Bb|----------------|----------------|----------------|----------------|
Gb|----------------|----------------|7-7-7-7---7-7---|--7-7-7-7-7-7-7-|
Db|4---4---4---4---|4---4---4---4---|7-7-7-7---7-7---|--7-7-7-7-7-7-7-|
Ab|4---4---4---4---|4---4---4---4---|5-5-5-5---5-5---|--5-5-5-5-5-5-5-|
Eb|2---2---2---2---|2---2---2---2---|----------------|----------------|

Outro ---

Guitar 2:
  PM . . . . . . .  . . . . . . . .  . . . . . . . .
eb|----------------|----------------|----------------|----------------|
Bb|----------------|----------------|----------------|----------------|
Gb|1111111111111111|7-7-7-7-7-7-7-7-|----------------|9---------------|
Db|1111111111111111|7-7-7-7-7-7-7-7-|7-7-7-7-7-7-7-7-|9---------------|
Ab|9-9-9-9-9-9-9-9-|5-5-5-5-5-5-5-5-|7-7-7-7-7-7-7-7-|7---------------|
Eb|----------------|----------------|5-5-5-5-5-5-5-5-|----------------|
   Once upon a time...


************************************

| /   slide up
| \   slide down
| h   hammer-on
| p   pull-off
| ~   vibrato
| x   Mute note
| b   Bend
| .   Palm mute (above note)

************************************
Tap to rate this tab
 
# A B C D E F G H I J K L M N O P Q R S T U V W X Y Z