Song name
# A B C D E F G H I J K L M N O P Q R S T U V W X Y Z

Rise Against - But Tonight We Dance tab

-------------------------------------------------------------------------------
			     But Tonight We Dance Solo - Rise Against
-------------------------------------------------------------------------------
Tabbed by: Zach
Email:zaccktt0@yahoo.com
(If you contact me please use a subject related to the website's name. I usually just 
delete everything I recognize as spam (Advertisements). )

Tuning:Drop D
Difficulty: Pretty easy after you get the feel for it.

Key:
~ Let Ring
h Hammer-on
p Pull off
s Slide
b Full Bend (Bend then come back to the normal note.)
hb Half bend (Bend to the highest point then play the next note)
#) Optional notes.
e|---------------------------------------------------------------------------|
B|----12-11----------12-11---------------------------------------------------|
G|----------11-11~---------11-13~----------------11-------11b--11h13-15p13---|
D|----------------------------------9h11-13p11-9-----9h11--------------------|
A|---------------------------------------------------------------------------|
E|---------------------------------------------------------------------------|

e|---------------------------------------------------------------------------|
B|---------------------16-14-14-12-12-14-14-16-16-14-14-12-12-11-11-12-12----|
G|13)15s16-16b-15-16---------------------------------------------------------|
D|---------------------------------------------------------------------------|
A|---------------------------------------------------------------------------|
E|---------------------------------------------------------------------------|

Any change suggestions would be greatly appreciated.

I would also like to thank the unregistered person for his/her Guitar Pro tab, as it 
helped me learn the solo- while listening to the song.
So go check that out. c:

I also used it for a base, but made it a little easier to play instead having to move up 
and down strings for some parts.
Tap to rate this tab
 
# A B C D E F G H I J K L M N O P Q R S T U V W X Y Z