Song name
# A B C D E F G H I J K L M N O P Q R S T U V W X Y Z

Rise Against - The First Drop tab

The First Drop

Eb tuning guys

Intro x4(guitar 2 begins after guitar 1 plays twice)

Guitar 1

e |-------------------------------------------------------------------||
B |-------------------------------------------------------------------||
G |-------55555-------------------------------------------------------||
D |-77777-55555-55555-33333-------------------------------------------||
A |-77777-33333-55555-33333-------------------------------------------||
E |-55555-------33333-11111-------------------------------------------||
 
Guitar 2                          
e |------------------------------------------------------|
B |------------------------------------------------------|
G |-9-9-9-9-9-14-14-14-14-14-10-10-10-10-10-10-10-12-10--|
D |------------------------------------------------------|
A |-7-7-7-7-7-12-12-12-12-12-8--8--8--8--8--8-8--10-8---|
E |------------------------------------------------------|

e |--------------------------------------------------||
B |--------------------------------------------------||
G |-9-9-9-9-9-14-14-14-14-14-10-10-10-10-10-17~------||
D |--------------------------------------------------||
A |-7-7-7-7-7-12-12-12-12-12-8--8--8--8--8-15~------||
E |--------------------------------------------------||
          
1st Verse part 1

Guitar 1 x2

(figure out strum pattern, number of strums might be more or less, play what sounds right)

e |-----------------------------------------------||
B |-----------------------------------------------||
G |----------------5555---------------------------||
D |-7777-5555-7777-5555-7777-5555-3333-5555-------||
A |-7777-5555-7777-3333-7777-5555-3333-5555-------||
E |-5555-3333-5555------5555-3333-1111-3333-------||
pm  xxxx xxxx xxxx xxxx xxxx xxxx xxxx xxxx

Guitar 2

e |-----------------------------------------------||
B |-----------------------------------------------||
G |-14~-------------------------------------------||
D |-----------------------------------------------||
A |-12~-------------------------------------------||
E |-----------------------------------------------||

e |-----------------------------------------------||
B |-----------------------------------------------||
G |-----------------------------------------------||
D |-7~--------------------------------------------||
A |-7~--------------------------------------------||
E |-5~--------------------------------------------||

1st Verse part 2

Guitar 1 

e |-----------------------------------------------||
B |-----------------------------------------------||
G |----------------5555---------------------------||
D |-7777-5555-7777-5555-7777-5555-3333-5555-------||
A |-7777-5555-7777-3333-7777-5555-3333-5555-------||
E |-5555-3333-5555------5555-3333-1111-3333-------||

e |-----------------------------------------------||
B |-----------------------------------------------||
G |----------------5555---------------------------||
D |-7777-5555-7777-5555-7777-5555-3-3333-5-5555---||
A |-7777-5555-7777-3333-7777-5555-3-3333-5-5555---||
E |-5555-3333-5555------5555-3333-1-1111-3-3333---||
                                    xxxx   xxxx

Guitar 2

e |-----------------------------------------------||
B |-----------------------------------------------||
G |-9-9-9-9-9-7-7-7-7-7-9-9-9-9-9-12-10-10--------||
D |-----------------------------------------------||
A |-7-7-7-7-7-5-5-5-5-5-7-7-7-7-7-10-8--8---------||
E |-----------------------------------------------||

e |----------------------------------------------------||
B |----------------------------------------------------||
G |-9-9-9-9-9-7-7-7-7-7-14-14-14-14-14-12-12-12-12-12--||
D |----------------------------------------------------||
A |-7-7-7-7-7-5-5-5-5-5-12-12-12-12-12-10-10-10-10-10--||
E |----------------------------------------------------||

e |-----------------------------------------------||
B |-----------------------------------------------||
G |-9-9-9-9-9-7-7-7-7-7-9-9-9-9-9-12-10-10--------||
D |-----------------------------------------------||
A |-7-7-7-7-7-5-5-5-5-5-7-7-7-7-7-10-8--8---------||
E |-----------------------------------------------||

e |-----------------------------------------------||
B |-----------------------------------------------||
G |-9-9-9-9-9-7-7-7-7-7---------------------------||
D |----------------------3-33333-5-55555----------||
A |-7-7-7-7-7-5-5-5-5-5--3-33333-5-55555----------||
E |----------------------1-11111-3-33333----------||
                           xxxxx   xxxxx

Chorus 4x

Both Guitars

e |---------------------------||
B |---------------------------||
G |-------55555---------------||
D |-77777-55555-55555-33333---||
A |-77777-33333-55555-33333---||
E |-55555-------33333-11111---||

2nd Verse part 1

Guitar 1 x2

(figure out strum pattern, number of strums might be more or less, play what sounds right)

e |-----------------------------------------------||
B |-----------------------------------------------||
G |----------------5555---------------------------||
D |-7777-5555-7777-5555-7777-5555-3333-5555-------||
A |-7777-5555-7777-3333-7777-5555-3333-5555-------||
E |-5555-3333-5555------5555-3333-1111-3333-------||
pm  xxxx xxxx xxxx xxxx xxxx xxxx xxxx xxxx

Guitar 2

e |-----------------------------------------------||
B |-----------------------------------------------||
G |-----------------------------------------------||
D |-----------------------------------------------||
A |-----------------------------------------------||
E |-----------------------------------------------||

e |-----------------------------------------------||
B |-----------------------------------------------||
G |-----------------------------------------------||
D |-7~--------------------------------------------||
A |-7~--------------------------------------------||
E |-5~--------------------------------------------||

2nd Verse part 2

Guitar 1 

e |-----------------------------------------------||
B |-----------------------------------------------||
G |----------------5555---------------------------||
D |-7777-5555-7777-5555-7777-5555-3333-5555-------||
A |-7777-5555-7777-3333-7777-5555-3333-5555-------||
E |-5555-3333-5555------5555-3333-1111-3333-------||

e |-----------------------------------------------||
B |-----------------------------------------------||
G |----------------5555---------------------------||
D |-7777-5555-7777-5555-7777-5555-3-3333-5-5555---||
A |-7777-5555-7777-3333-7777-5555-3-3333-5-5555---||
E |-5555-3333-5555------5555-3333-1-1111-3-3333---||
                                    xxxx   xxxx

Guitar 2

e |-----------------------------------------------||
B |-----------------------------------------------||
G |-9-9-9-9-9-7-7-7-7-7-9-9-9-9-9-12-10-10--------||
D |-----------------------------------------------||
A |-7-7-7-7-7-5-5-5-5-5-7-7-7-7-7-10-8--8---------||
E |-----------------------------------------------||

e |----------------------------------------------------||
B |----------------------------------------------------||
G |-9-9-9-9-9-7-7-7-7-7-14-14-14-14-14-12-12-12-12-12--||
D |----------------------------------------------------||
A |-7-7-7-7-7-5-5-5-5-5-12-12-12-12-12-10-10-10-10-10--||
E |----------------------------------------------------||

e |-----------------------------------------------||
B |-----------------------------------------------||
G |-9-9-9-9-9-7-7-7-7-7-9-9-9-9-9-12-10-10--------||
D |-----------------------------------------------||
A |-7-7-7-7-7-5-5-5-5-5-7-7-7-7-7-10-8--8---------||
E |-----------------------------------------------||

e |-----------------------------------------------||
B |-----------------------------------------------||
G |-9-9-9-9-9-7-7-7-7-7---------------------------||
D |----------------------3-33333-5-55555----------||
A |-7-7-7-7-7-5-5-5-5-5--3-33333-5-55555----------||
E |----------------------1-11111-3-33333----------||
                           xxxxx   xxxxx


Chorus 4x

Both Guitars

e |---------------------------||
B |---------------------------||
G |-------55555---------------||
D |-77777-55555-55555-33333---||
A |-77777-33333-55555-33333---||
E |-55555-------33333-11111---||

Play this after the chorus
e |---------------------------||
B |---------------------------||
G |---------------------------||
D |-2222222222----------------||
A |-2222222222----------------||
E |-0000000000----------------||

Bridge 1

Guitar 1

e |---------------------------------------------------------------||
B |---------------------------------------------------------------||
G |----------------------------------------------------------5555-||
D |-------------5555----------------------------5555-5555-33-5555-||
A |-777777773333333377777777333355557777777733333333-5555-33-3333-||
E |-555555551111----5555555511113333555555551111-----3333-11------||
PM  xxxxxxxxxxxxxxxxxxxxxxxxxxxxxxxxxxxxxxxxxxxxxxxx
Guitar 2

e |--------------------------------------------------------------||
B |--------------------------------------------------------------||
G |---------------------------------------------------------5555-||
D |-7~----------------------------------------------5555-33-5555-||
A |-7~----------------------------------------------5555-11-3333-||
E |-5~----------------------------------------------3333-11------||

Bridge 2 

Guitar 1 x2

e |---------------------------------------------------------------||
B |---------------------------------------------------------------||
G |----------------------------------------------------------5555-||
D |-------------5555----------------------------5555-5555-33-5555-||
A |-777777773333333377777777333355557777777733333333-5555-33-3333-||
E |-555555551111----5555555511113333555555551111-----3333-11------||
PM  xxxxxxxxxxxxxxxxxxxxxxxxxxxxxxxxxxxxxxxxxxxxxxxx

Guitar 2 x2

|-----------------------------------------------------------------||
|-----------------------------------------------------------------||
|------------------------------------------------------------5555-||
|----------------------------------------------------5555-33-5555-||
|-0-3-0-7-0-3-5-8-10-8-----0-3-0-7-0-3-5-3-3-2-2-2---5555-33-3333-||
|----------------------8-8---------------------------3333-11------||

Second time, play this at the end

Both Guitars

e |---------||
B |---------||
G |---------||
D |-7~----7-||
A |-7~----7-||
E |-5~----5-||

Chorus 3x

Both Guitars

e |---------------------------||
B |---------------------------||
G |-------55555---------------||
D |-77777-55555-55555-33333---||
A |-77777-33333-55555-33333---||
E |-55555-------33333-11111---||

End

Both Guitars

e |---------------------------------------||
B |---------------------------------------||
G |-------55555---------------------------||
D |-77777-55555-555555555-333333333-3-5-7-||
A |-77777-33333-555555555-333333333-3-5-7-||
E |-55555-------333333333-111111111-1-3-5-||
Tap to rate this tab
 
# A B C D E F G H I J K L M N O P Q R S T U V W X Y Z