Song name
# A B C D E F G H I J K L M N O P Q R S T U V W X Y Z

Rise Against - Savior tab

Savior by Rise Against

Tuned down 1/2 step

Though the other tabs are the right notes, Tim plays the song lower on the
neck (seen live), it sounds the same but is a little easier. (not having to
stretch the left hand REALLY helps those who sing&play) This is only the
intro, as the rest of the song is correct in all the other tabs (no use
repeating)

. beneath line is palm mute

use your index finger to play the second string & mute the third
simultaneously, its easier than it sounds, and makes the fast shifts
effortless when you get adjusted

--------------------------------------------------------------------|
-2---------------2-----------2----2-2-2-2-2-2-2-2-2-2-2-2-2-2-2-2---|
-x-----2-----4---x---4---2---2----2-2-2-2-2-2-2-2-2-2-2-2-2-2-2-2---|
-4-4-4-4-4-4-4-4-4-4-4-4-4-4----------------------------------------|
--------------------------------------------------------------------|
--------------------------------------------------------------------|
   . .   . .   .   .   .   .      . . . . . . . . . . . . . . . .

--------------------------------------------------------------------|
-2---------------2--------------------------------------------------|
-x-----2-----4---x---4---2---2----2-2-2-2-2-2-1-1-1-1-1-1-1---------|
-0-0-0-0-0-0-0-0-0-0-0-0-0-0-2----2-2-2-2-2-2-2-2-2-2-2-2-2---------|
--------------------------------------------------------------------|
--------------------------------------------------------------------|
   . .   . .   .   .   .   .      . . . .   .   . . . . . .

enjoy!
Tap to rate this tab
# A B C D E F G H I J K L M N O P Q R S T U V W X Y Z