Song name
# A B C D E F G H I J K L M N O P Q R S T U V W X Y Z

Rise Against - Anyway You Want It tab

[Intro]
e|------------------------|
B|------------------------|
G|------------------------|
D|-----------------020----|
A|5-55-52--323232-3---320-|
E|3-32-20--------3-------3|

[Verse 1]
e|----------------------------------------|
B|----------------------------------------|
G|----------------------------------------|
D|----------------------------------------| x4
A|555555-55-55555-52-222222--323232-------|
E|333333-32-22222-20-000000--------3------|
  ...... .. ..... .. ......

[Chorus 1]
e|----------------------------------------|
B|----------------------------------------|
G|---------------------------545454-------|
D|---------------------------------5------|
A|555555-55-55555-52-222222---------------|
E|333333-32-22222-20-000000---------------|
  ...... .. ..... .. ......
e|----------------------------------------|
B|----------------------------------5-----|
G|-------------------------545454-57-754--|
D|-------------------------------5------75|
A|555555-55-55555-52-222222---------------|
E|333333-32-22222-20-000000---------------|
  ...... .. ..... .. ......

[Verse 2]
e|----------------------------------------|
B|----------------------------------------|
G|----------------------------------------|
D|----------------------------------------| x4
A|555555-55-55555-52-222222--323232-------|
E|333333-32-22222-20-000000--------3------|
  ...... .. ..... .. ......

[Chorus 2]
e|----------------------------------------|
B|----------------------------------------|
G|---------------------------545454-------|
D|---------------------------------5------| x2
A|555555-55-55555-52-222222---------------|
E|333333-32-22222-20-000000---------------|
  ...... .. ..... .. ......


[Solo/Last Chorus/Outro]
(Guitar 1)
e|----------------------------------------------------------|
B|----------------------------------------------------------|
G|14^14^14^14~12-14^-14p12h14p12-12h14p12-------------------|
D|---------------------------------------14p12--------------|
A|--------------------------------------------14p12---------|
E|-------------------------------------------------15p12\10~|

e|---------------------------------------------------------|
B|---------------------------------------------------------|
G|-----12h14-14^-14-12-14~12-----------12h14p1214^14h12----|
D|12h14---------------------14-12~14-12----------------12~~|
A|---------------------------------------------------------|
E|---------------------------------------------------------|

e|-------------------|
B|5-32----232--232---|
G|----4-24---24---242|
D|-------------------|
A|-------------------|
E|-------------------|

(Guitar 2)
e|----------------------------------------|
B|----------------------------------------|
G|----------------------------------------|
D|----------------------------------------| (Till End of Song)
A|555555-55-55555-52-222222--323232-------|
E|333333-32-22222-20-000000--------3------|
  ...... .. ..... .. ......
Tap to rate this tab
# A B C D E F G H I J K L M N O P Q R S T U V W X Y Z