Song name
# A B C D E F G H I J K L M N O P Q R S T U V W X Y Z

Rise Against - The Strength To Go On tab

The Strength to Go On - Rise Against
(Appeal to Reason)

Hey guys, this is my first tab so I hope it will help you. It's a kind of rythm guitar 
tab, in my opinion.

INTRO :

e|---------------------------------|
B|---------------------------------|
G|666-9-8-6-222-444----------------|
D|xxx-x-x-x-222-444----------------|               x2
A|444-7-6-4-000-222----------------|
E|---------------------------------|


First Verse :
There are "11" not "1"
e|--------------------------------------------------------------------------|
B|--------------------------------------------------------------------------|
G|666-9-8-6-222-444---666-9-8-6-222-444---666-9-8-6-222-444-9999-111111-----|
D|xxx-x-x-x-222-444---xxx-x-x-x-222-444---xxx-x-x-x-222-444-xxxx-xxxxxx-----|    x2
A|444-7-6-4-000-222---444-7-6-4-000-222---444-7-6-4-000-222-7777-9 9 9------|
E|--------------------------------------------------------------------------|

Pre-Chorus :

e|-------------------------------------|
B|-------------------------------------|
G|2~-4~-6666666-4444444-222222-4444444-|
D|2~-4~-6666666-4444444-222222-4444444-|
A|0~-2~-4444444-2222222-000000-2222222-|
E|-------------------------------------|

Chorus :
You can figure out yourself the strumming pattern, it's just an "indication"
e|-----------------------------------------------------------------------------------|
B|-----------------------------------------------------------------------------------|
G|66666-4444444-2222222-66666-444444-22222-66666-44444-222222-44444-22222-44444-2----|
D|66666-4444444-2222222-66666-444444-22222-66666-44444-222222-44444-22222-44444-2----|
A|44444-2222222-0000000-44444-222222-00000-44444-22222-000000-22222-00000-22222-0----|
E|-----------------------------------------------------------------------------------|

Back to intro

Second Verse :
There's mainly bass. But still the last mesure.
e|-------------------------------------|
B|-------------------------------------|
G|------------------------9999-111111--|
D|------------------------xxxx-x x x---|         x2 There is a pickslide in the second time.
A|------------------------7777-9 9 9---|
E|-------------------------------------|

Pre-Chorus

Chorus

Bridge :

e|-----------------------------------|
B|-----------------------------------|
G|-44--66-22222222--44--66-222222222-|
D|-44--66-22222222--44--66-222222222-|
A|-22--44-00000000--22--44-000000000-|
E|-----------------------------------|

Here's the chords for the second part of the bridge, just figure out yourself the strumming.
e|----------------------------|
B|----------------------------|
G|-4--6--2--4--6--2--4--2--4~-|
D|-4--6--2--4--6--2--4--2--4~-|
A|-2--4--0--2--4--0--2--0--2~-|
E|----------------------------|

Clean Section :

e|---------------0----------------------0-----------|
B|--------------------------------------------------|
G|---6----4----2---            ---4----2-----4----2-|        This part may be wrong, sorry.
D|--6-6--4-4--2----      x3    --4-4--2-----4-4--2--|
A|-4----2----0-----            -2----0-----2----0---|
E|--------------------------------------------------|

Back to chorus.
Beware, the last chord x244xx is played once


Hope you enjoyed it. Please rate & comment
Tap to rate this tab
# A B C D E F G H I J K L M N O P Q R S T U V W X Y Z