Song name
# A B C D E F G H I J K L M N O P Q R S T U V W X Y Z

Rise Against - Satellite tab

Guitar 1
Tuning= Half-Step Down (D# G# C# F# A# D# Bottom to top)

Intro
e|--------------------------------------------------|
B|---5----10-9~~~~~~~-------5------5-7---4----------|
G|/6---------------------/6------6------------------|
D|--------------------------------------------------|
A|--------------------------------------------------|
E|--------------------------------------------------|

e|--------------------------------------------------|
B|---5----10-9~~~~~~~-------5------5-7--------------|
G|/6---------------------/6------6------------------|
D|--------------------------------------------------|
A|--------------------------------------------------|
E|--------------------------------------------------|

e|--------------------------------------------------|
B|--------------------------------------------------|
G|--------------------------------------------------|
D|---444444444--------------------------------------|
A|---222222222--------------------------------------|
E|--------------------------------------------------|

Chorus (Chords* Listen to the song for the rhythm.)
e|----------------------------|
B|----------------------------|
G|----------------9-----4-----|
D|--4------7------9-----4-----|
A|--4------7------7-----2-----|
E|--2------5------------------|

e|----------------------------|
B|----------------------------|
G|----------------9-----7--9--|
D|--4------7------9-----7--9--|
A|--4------7------7-----5--7--|
E|--2------5------------------|

e|---------------------------------------------------------|
B|---------------------------------------------------------|
G|--14-14-14-14-13-13-13-13-13--14-14-14-14-13-13-13-13-13-|
D|---x--x--x--x--x--x--x--x--x---x--x--x--x--x--x--x--x--x-| 
A|--12-12-12-12-11-11-11-11-11--12-12-12-12-11-11-11-11-11-|
E|---------------------------------------------------------|

e|---------------------------------------------------------|
B|---------------------------------------------------------|
G|--14-14-14-14-13-13-13-13-13--16-16-16-16-11-11-11-11-11-|
D|---x--x--x--x--x--x--x--x--x---x--x--x--x--x--x--x--x--x-|
A|--12-12-12-12-11-11-11-11-11--14-14-14-14--9--9--9--9--9-|
E|---------------------------------------------------------|
Play this twice

Fill
e|--------------------------------------------------|
B|------------------5-5h7~~~7-----------------------|
G|-666-------6p4------------------------------------|
D|-444----------6/7---------------------------------|
A|--------------------------------------------------|
E|--------------------------------------------------|

Intro
e|--------------------------------------------------|
B|---5----10-9~~~~~~~-------5------5-7---4----------|
G|/6---------------------/6------6------------------|
D|--------------------------------------------------|
A|--------------------------------------------------|
E|--------------------------------------------------|

e|--------------------------------------------------|
B|---5----10-9~~~~~~~-------5------5-7--------------|
G|/6---------------------/6------6------------------|
D|--------------------------------------------------|
A|--------------------------------------------------|
E|--------------------------------------------------|

Intro variation (Play this twice)
e|--------------------------------------------------|
B|-7---5-7-7---5-7-7---5-7-7---7-5------------------|
G|---6-------6-------6-------4----------------------|
D|--------------------------------------------------|
A|--------------------------------------------------|
E|--------------------------------------------------|

Play chorus again

Then Play this
e|------5-7--7-/9-------5-7--7--5-------------------|
B|--5-7-------------5-7----------5--7-7-------------|
G|--------------------------------------------------|
D|--------------------------------------------------|
A|--------------------------------------------------|
E|--------------------------------------------------|
End with this
e|------5-7--7-/9--7-5------------------------------|
B|--5-7----------------5----------------------------|
G|--------------------------------------------------|
D|--------------------------------------------------|
A|--------------------------------------------------|
E|--------------------------------------------------|

Break for clean section

same chords from the chorus, but with a different rhythm
e|----------------------------|
B|----------------------------|
G|----------------9-----4-----|
D|--4------7------9-----4-----|Play this 4x 
A|--4------7------7-----2-----|
E|--2------5------------------|

e|---------------------------------------------------|
B|---------------------------------------------------|
G|---------------------------------------------------|
D|--4------------------------2224--------------------|
A|--4--wait long-ass time----2224--------------------|
E|--2------------------------0002--------------------|

little fill (slide into each chord)
e|------------------------|
B|------------------------|
G|--16\13/14\11-11--------|
D|---x--x--x--x--x--------|
A|--14\11/12\-9--9--------|
E|------------------------|

Build
e|----------------------------------------|
B|----------------------------------------|
G|---------------9------------------------|
D|--4------7-----9-----Pick-scrape--------|
A|--4------7-----7-----////////////-------|
E|--2------5-----------////////////-------|

Play Chorus again

End song with these chords (Listen to song for rhythm)
e|--------------------------------------------------|
B|--------------------------------------------------|
G|--------------------------------------------------|
D|--7-----5--------4--------------------------------|
A|--5-----3--------4--------------------------------|
E|-----------------2--------------------------------|
I can add guitar 2 if you guys want...
Just send me a message!
I would hope you guys could figure it out by ear!
Tap to rate this tab
 
# A B C D E F G H I J K L M N O P Q R S T U V W X Y Z