Song name
# A B C D E F G H I J K L M N O P Q R S T U V W X Y Z

Rise Against - This Is Letting Go tab

----------------------------------------------------------------------------
	              THIS IS LETTING GO - Rise Against
----------------------------------------------------------------------------

Tabbed By : Peedunkey
e-mail: bubbin.rose@gmail.com

Tuning: Half step down


Intro

Rest 8 measure then:

Gb|------------------------------------------------------------------------|
Db|---------7-7-7-7-9-9-9-9-7-7-7-7----------------------------------------|
Ab|-9-9-9-9-------------------------7-7-7-7-7-7-7-7-7-7-7-7-7-7-7-7--------|
Eb|------------------------------------------------------------------------|

Gb|------------------------------------------------------------------------|
Db|------------------------------------------------------------------------|
Ab|-9-9-9-9-9-9-9-9-5-5-5-5-5-5-5-5-0-0-0-0-0-0-0-0-7-7-7-7-7-7-7-7--------|
Eb|------------------------------------------------------------------------|

Gb|------------------------------------------------------------------------|
Db|------------------------------------------------------------------------|
Ab|-9-9-9-9-9-9-9-9-5-5-5-5-5-5-5-5-7-7-7-7-7-7-7-7-7-7-7-7-7-5-0-7--------|
Eb|------------------------------------------------------------------------|


Verse

Gb|------------------------------------------------------------------------|
Db|------------------------------------------------------------------------|
Ab|-9----Once upon I time I could take anything, anything------------------|
Eb|------------------------------------------------------------------------|

Gb|------------------------------------------------------------------------|
Db|------------------------------------------------------------------------|
Ab|-9-9-9-9-9-9-9-9-5-5-5-5-5-5-5-5-7-7-7-7-7-7-7-7-7-7-7-7-7-7-7-7--------|
Eb|------------------------------------------------------------------------|

Gb|------------------------------------------------------------------------|
Db|------------------------------------------------------------------------|
Ab|-9-9-9-9-9-9-9-9-5-5-5-5-5-5-5-5-0-0-0-0-0-0-0-0-7-7-7-7-7-7-7-7--------|
Eb|------------------------------------------------------------------------|

Gb|------------------------------------------------------------------------|
Db|------------------------------------------------------------------------|
Ab|-9-9-9-9-9-9-9-9-5-5-5-5-5-5-5-5-7-7-7-7-7-7-7-7-7-7-7-7-7-7-7-7--------|
Eb|------------------------------------------------------------------------|


Prechorus

Gb|------------------------------------------------------------------------|
Db|---------------------------------------------------11h9-11h9------------|
Ab|-5-----4-4-----2-2-----0-0-7-7-7-7-7-7-7-7-7-7-7-7----------------------|
Eb|------------------------------------------------------------------------|


Chorus

Gb|------------------------------------------------------------------------|
Db|------------------------------------------------------------------------|
Ab|-0-0-0-0-0-0-0-0-0-0-0-0-0-0-0-0-7-7-7-7-7-7-7-7-7-7-7-7-7-7-7-7--------|
Eb|------------------------------------------------------------------------|

Gb|------------------------------------------------------------------------|
Db|-------11-11-11-11-9-9-9-9-11-11-11-11----------------------------------|
Ab|-9-9-9---------------------------------5-5-5-5-5-5-5-5-5-5-5-5-5-5-5-5-5|
Eb|------------------------------------------------------------------------|

Gb|------------------------------------------------------------------------|
Db|-------11-9-9-11-11-11-11-11-11-11--------------------------------------|
Ab|-0-4h0-----------------------------7-7-7-7-7-7-7-7-7-7-7-7-7-7-7-7------|
Eb|------------------------------------------------------------------------|

Gb|------------------------------------------------------------------------|
Db|-------11-11-11-11-9-9-9-9-11-11-11-11----------------------------------|
Ab|-9-9-9---------------------------------5-5-5-5-5-5-5-5-5-5-5-5-5-5-5-5-5|
Eb|------------------------------------------------------------------------|

Gb|-------------------------------------|
Db|-------------------------------------|
Ab|-5-5-5-5-5-5-5-5-7-7-7-7-7-7-7-7-----|
Eb|-------------------------------------|


Interlude

Gb|------------------------------------------------------------------------|
Db|------------------------------------------------------------------------|
Ab|-9-9-9-9-9-9-9-9-5-5-5-5-5-5-5-5-0-00-5-5-5-5-2-2-2-2-2-2-2-2-----------|
Eb|------------------------------------------------------------------------|

Gb|------------------------------------------------------------------------|
Db|------------------------------------------------------------------------|
Ab|-9-9-9-9-9-9-9-9-5-5-5-5-5-5-5-5-7-7-7-7-7-7-7-7-7-7-7-7-7-7-7-7--------|
Eb|------------------------------------------------------------------------|


Verse

Gb|------------------------------------------------------------------------|
Db|------------------------------------------------------------------------|
Ab|-9-9-9-9-9-9-9-9-5-5-5-5-5-5-5-5-0-0-0-0-0-0-0-0------------------------|
Eb|-------------------------------------------------0-0-0-0-0-0-0-0--------|

Gb|------------------------------------------------------------------------|
Db|------------------------------------------------------------------------|
Ab|-9-9-9-9-9-9-9-9-5-5-5-5-5-5-5-5-7-7-7-7-7-7-7-7-7-7-7-7-0-0-7-7--------|
Eb|------------------------------------------------------------------------|

Gb|------------------------------------------------------------------------|
Db|------------------------------------------------------------------------|
Ab|-9-9-9-9-9-9-9-9-5-5-5-5-5-5-5-5-0-0-0-0-0-0-0-0-7-7-7-7-7-7-7-7--------|
Eb|------------------------------------------------------------------------|

Gb|------------------------------------------------------------------------|
Db|------------------------------------------------------------------------|
Ab|-9-9-9-9-9-9-9-9-5-5-5-5-5-5-5-5-7-7-7-7-7-7-7-7-7-7-7-7-7-7-7-7--------|
Eb|------------------------------------------------------------------------|


Prechorus

Gb|------------------------------------------------------------------------|
Db|------------------------------------------------------------------------|
Ab|-5-----4-4-----2-2-----0-0----------------------------------------------|
Eb|---------------------------0-0-0-0-0-0-0-0-0-0-0-0-0-0-0-0--------------|


Chorus

Gb|------------------------------------------------------------------------|
Db|------------------------------------------------------------------------|
Ab|-0-0-0-0-0-0-0-0-0-0-0-0-0-0-0-0-7-7-7-7-7-7-7-7-7-7-7-7-7-7-7-7--------|
Eb|------------------------------------------------------------------------|

Gb|------------------------------------------------------------------------|
Db|-------11-11-11-11-9-9-9-9-11-11-11-11----------------------------------|
Ab|-9-9-9---------------------------------5-5-5-5-5-5-5-5-5-5-5-5-5-5-5-5-5|
Eb|------------------------------------------------------------------------|

Gb|------------------------------------------------------------------------|
Db|-------11-9-9-11-11-11-11-11-11-11--------------------------------------|
Ab|-0-4h0-----------------------------7-7-7-7-7-7-7-7-7-7-7-7-7-7-7-7------|
Eb|------------------------------------------------------------------------|

Gb|------------------------------------------------------------------------|
Db|-------11-11-11-11-9-9-9-9-11-11-11-11----------------------------------|
Ab|-9-9-9---------------------------------5-5-5-5-5-5-5-5-5-5-5-5-5-5-5-5-5|
Eb|------------------------------------------------------------------------|


Bridge

Gb|-----------------------------------------------------------------|
Db|-----------------------------------------------------------------|
Ab|---------------5---5---5---5-------------------------------------|
Eb|-2-4-5-7---5-4-----------------2-4-5-7---5-4-5---0---------------|

Gb|-----------------------------------------------------------------|
Db|-----------------------------------------------------------------|
Ab|---------------------------------5-5-5-5-5-5-5-5-5-5-5-5-5-5-5-5-|
Eb|-2-2-2-2-2-2-2-2-2-2-2-2-2-2-2-2---------------------------------|

Gb|-----------------------------------------------------------------|
Db|-----------------------------------------------------------------|
Ab|-0-0-0-0-0-0-0-0-0-0-0-0-0-0-0-0-2-2-2-2-2-2-2-2-2-2-2-2-2-2-2-2-|
Eb|-----------------------------------------------------------------|

Gb|-----------------------------------------------------------------|
Db|-----------------------------------------------------------------|
Ab|---------------------------------5-5-5-5-5-5-5-5-5-5-5-5-5-5-5-5-|
Eb|-2-2-2-2-2-2-2-2-2-2-2-2-2-2-2-2---------------------------------|

Gb|-----------------------------------------------------------------|
Db|-----------------------------------------------------------------|
Ab|-0-0-0-0-0-0-0-0-0-0-0-0-0-0-0-0-2-2-2-2-2-2-2-2-2---------------|
Eb|-----------------------------------------------------------------|

Gb|-----------------------------------------------------------------|
Db|-----------------------------------------------------------------|
Ab|-----------------5-5-5-5-5-5-5-5-0-0-0-0-0-0-0-0-2-2-2-2-2-2-2-2-|
Eb|-2-2-2-2-2-2-2-2-------------------------------------------------|

Gb|-----------------------------------------------------------------|
Db|-----------------------------------------------------------------|
Ab|-----------------5-5-5-5-5-5-5-5-0-0-0-0-0-0-0-0-2-2-4-4---------|
Eb|-2-2-2-2-2-2-2-2-------------------------------------------------|


Gb|-----------------------------------------------------------------|
Db|-----------------------------------------------------------------|
Ab|-9-9-9-9-9-9-7-7-5-5-5-5-5-5-5-5-0-0-0-0-0-0-0-0-2-2-2-2-2-2-2-2-|
Eb|-----------------------------------------------------------------|

Gb|-----------------------------------------------------------------|
Db|-----------------------------------------------------------------|
Ab|-9-9-9-9-9-9-9h11-5-5-5-5-5-5-5-5-0-0-0-0-0-0-0-0-2-2-2-2-2-2-2-2|
Eb|-----------------------------------------------------------------|

Gb|-----------------------------------------------------------------|
Db|-----------------------------------------6-6-6-6-7-7-7-7-6-6-6-6-|
Ab|-5-5-4-4-2-2-4-4-5-5-4-4-2-2-4-4-7-7-7-7-------------------------|
Eb|-----------------------------------------------------------------|


Final Chorus

Gb|-----------------------------------------------------------------|
Db|-----------------------------------------------------------------|
Ab|-0-------------------------------7-------------------------------|
Eb|-----------------------------------------------------------------|

Gb|-----------------------------------------------------------------|
Db|-----------------------------------------------------------------|
Ab|-9-9-9-9-9-9-9-9-9-9-9-9-9-9-9-9-5-5-5-5-5-5-5-5-5-5-5-5-5-5-5-5-|
Eb|-----------------------------------------------------------------|

Gb|-----------------------------------------------------------------|
Db|-----------------------------------------------------------------|
Ab|-0-0-0-0-0-0-0-0-0-0-0-0-4-4-5-5-7-7-7-7-7-7-7-7-7-7-7-7-7-7-7-7-|
Eb|-----------------------------------------------------------------|

Gb|-----------------------------------------------------------------|
Db|-----------------------------------------------------------------|
Ab|-9-9-9-9-9-9-9-9-9-9-9-9-9-9-9-9-5-5-5-5-5-5-5-5-5-5-5-5-5-5-5-5-|
Eb|-----------------------------------------------------------------|


Outro

Gb|------------------------------------------------------------------|
Db|------------------------------------------------------------------|
Ab|-0-0-0-0-0-0-0-0-0-0-0-0-0-0-0-0-7-7-7-7-7-7-7-7-7-7-7-7-7-7-7-7--|
Eb|------------------------------------------------------------------|

Gb|------------------------------------------------------------------|
Db|-------------------------------------------------------------11-11|
Ab|-9-9-9-9-9-9-9-9-9-9-9-9-9-9-9-9-5-5-5-5-5-5-5-5-5-5-5-5-5-5------|
Eb|------------------------------------------------------------------|

Gb|------------------------------------------------------------------|
Db|------------------------------------------------------------------|
Ab|-0-0-0-0-0-0-0-0-0-0-0-0-0-0-0-0-7-7-7-7-7-7-7-7-7-7-7-7-7-7-7-7--|
Eb|------------------------------------------------------------------|

Gb|------------------------------------------------------------------|
Db|------------------------------------------------------------------|
Ab|-9-9-9-9-9-9-9-9-9-9-9-9-9-9-9-9-5-5-5-5-5-5-5-5-5-5-5-5-5-5-5-5--|
Eb|------------------------------------------------------------------|

Tap to rate this tab
# A B C D E F G H I J K L M N O P Q R S T U V W X Y Z