Song name
# A B C D E F G H I J K L M N O P Q R S T U V W X Y Z

Rise Against - Good Left Undone tab

E--------------------------------------|
B--------------------------------------|
G--------------------------------------|
D--------6--6h7--9---------------------|
A--7--9-------------9--11--9-9/7--9p7--|
E--------------------------------------|


E-------------------------------------|
B-------------------------------------|
G-------------------------------------|
D--------6--6h7--9--------------------|
A--7--9-------------6--7-7/9/7--------|
E-------------------------------------|
Tap to rate this tab
# A B C D E F G H I J K L M N O P Q R S T U V W X Y Z