Song name
# A B C D E F G H I J K L M N O P Q R S T U V W X Y Z

Rise Against - Entertainment tab

*Tab, great for both distorted and acoustic guitarists :D enjoy.


INTRO:

E|----------------|
B|----------------|
G|----------------|   RHYTHM
D|-4-44-4-44-4-44-|
A|-2-22-2-22-2-22-|
E|----------------|

E|---------------------------------------------------|
B|---------------------------------------------------|
G|---------------------------------------------------|       RHYTHM
D|-4-44-4-44-4-44-4-44-4-44-4-44s7-77-7-77-----------|        (x2)
A|-2-22-2-22-2-22-2-22-2-22-2-22s5-55-5-55-2-22-2-22-|
E|-----------------------------------------0-00-0-00-|
   
E|-----------|-----------|---------------|
B|-----------|-----------|---------------|
G|-----------|-----------|---------------|   LEAD
D|---5-4-----|---5-4-----|---5-4-2-------|   (x2)
A|-2-----5-4-|-2-----5-4-|-5-------5-4-2-|
E|-----------|-----------|---------------|

VERSE:

E|---------------------------------------------------|
B|---------------------------------------------------|
G|---------------------------------------------------|   LEAD & RHYTHM
D|-4-44-4-44-4-44-4-44-4-44-4-44s7-77-7-77-----------|        (x2)
A|-2-22-2-22-2-22-2-22-2-22-2-22s5-55-5-55-2-22-2-22-|
E|-----------------------------------------0-00-0-00-|

CHORUS:

E|--------------------------------------------------------------|
B|--------------------------------------------------------------|
G|--------------------------------------------------------------|
D|-------------------4-4-4-4------------------------------------|
A|-4s5-5-5-5-2-2-2-2-2-2-2-2-4-4-4-4s5-5-5-5s7-7-7-7--9--9--9--9|
E|-2s3-3-3-3-0-0-0-0---------2-2-2-2s3-3-3-3s5-5-5-5--7--7--7--7|

E|--------------------------------------------------------------|
B|--------------------------------------------------------------|
G|--------------------------------------------------------------|
D|-------------------4-4-4-4------------------------------------|
A|-4s5-5-5-5-2-2-2-2-2-2-2-2-4-4-4-4s5-5-5-5s7-7-7-7--9999999999|
E|-2s3-3-3-3-0-0-0-0---------2-2-2-2s3-3-3-3s5-5-5-5--7777777777|

BREAK:

E|-----------|-----------|---------------|
B|-----------|-----------|---------------|
G|-----------|-----------|---------------|   LEAD
D|---5-4-----|---5-4-----|---5-4-2-------|   (x2)
A|-2-----5-4-|-2-----5-4-|-5-------5-4-2-|
E|-----------|-----------|---------------|

VERSE:

E|---------------------------------------------------|
B|---------------------------------------------------|
G|---------------------------------------------------|   LEAD & RHYTHM
D|-4-44-4-44-4-44-4-44-4-44-4-44s7-77-7-77-----------|        (x2)
A|-2-22-2-22-2-22-2-22-2-22-2-22s5-55-5-55-2-22-2-22-|
E|-----------------------------------------0-00-0-00-|

CHORUS:

E|--------------------------------------------------------------|
B|--------------------------------------------------------------|
G|--------------------------------------------------------------|
D|-------------------4-4-4-4------------------------------------|
A|-4s5-5-5-5-2-2-2-2-2-2-2-2-4-4-4-4s5-5-5-5s7-7-7-7--9--9--9--9|
E|-2s3-3-3-3-0-0-0-0---------2-2-2-2s3-3-3-3s5-5-5-5--7--7--7--7|

E|--------------------------------------------------------------|
B|--------------------------------------------------------------|
G|--------------------------------------------------------------|
D|-------------------4-4-4-4------------------------------------|
A|-4s5-5-5-5-2-2-2-2-2-2-2-2-4-4-4-4s5-5-5-5s7-7-7-7--9999999999|
E|-2s3-3-3-3-0-0-0-0---------2-2-2-2s3-3-3-3s5-5-5-5--7777777777|

SOLO:

E|--------------------------------------------------------------|
B|--------------------------------------------------------------|
G|--------------------------------------------------------------|
D|--------------------------------------------------------------|
A|-2-2-2-2--2-0-5-4-2-2-2-2--2-0-5-4-5-5-5-5-7777-99999-9-7-5-4-|
E|--------------------------------------------------------------|

BRIDGE & WALTZ:

E|----------------------------------------------|
B|----------------------------------------------|
G|----------------------------------------------|
D|----------------------------------------------|
A|-77777777-22222222-55555555s77777777s88888888-|
E|-55555555-00000000-33333333s55555555s66666666-|

E|---22-     ---55-     ---77-     ---22-     --|
B|---33-     ---77-     ---99-     ---33-     --|
G|---44-(x8) ---77-(x2) ---99-(x2) ---44-(x4) --|   (x2)
D|---44-     ---77-     ---99-     ---44-     --|
A|-2-22-     -5-55-     -7-77-     -2-22-     --|
E|------     ------     ------     ------     --|

    Bm          D           E

CHORUS

OUTRO:


E|-----------|-----------|------------------|
B|-----------|-----------|------------------|
G|-----------|-----------|------------------|   LEAD
D|---5-4-----|---5-4-----|---5-4-2----------|   (x2)
A|-2-----5-4-|-2-----5-4-|-5-------5p4-4p2-2|
E|-----------|-----------|------------------|
Tap to rate this tab
# A B C D E F G H I J K L M N O P Q R S T U V W X Y Z