Song name
# A B C D E F G H I J K L M N O P Q R S T U V W X Y Z

Rise Against - Dirt And Roses tab

Dirt And Roses - Rise Against
Tabbed By Kino94

Guitar 1:

Intro:
eb----------------------------------------------------|
Bb----------------------------------------------------|
Gb---------------5----------10-10-10-10--9--9--9--9---|
Db---7--7--7--7--7--7--7--7--7--7--7--7--7--7--7--7---|x2 
Ab---0--0--0--0--0--0--0--0--0--0--0--0--0--0--0--0---|
Eb----------------------------------------------------|

eb-------------------------------------|
Bb-------------------------------------|
Gb-------9-----9-10-10-12-10-9-9-9-9---|
Db---7-7---7-7-------------------------|x3
Ab-------------------------------------|
Eb-------------------------------------|

eb-----------------------------------------|
Bb-----------------------------------------|
Gb-----------------------------------------|
Db-------9-----9-10-10-x-x-x-x-x-x---------|x1
Ab---7-7---7-7---7--7--x-x-x-x-x-x---------|
Eb-----------------------------------------|

Verse:
eb------------------------------------------|
Bb------------------------------------------|
Gb---2~---5-5-5-5-5-5-5-5-9-9-9-9-9---2~----|
Db---2~---5-5-5-5-5-5-5-5-9-9-9-9-9---2~----|
Ab---0~---3-3-3-3-3-3-3-3-7-7-7-7-7---0~----|
Eb------------------------------------------|
Pm:                         . .

eb----------------------------------------------------|
Bb----------------------------------------------------|
Gb---------------5----------10-10-10-10--9--9--9--9---|
Db---7--7--7--7--7--7--7--7--7--7--7--7--7--7--7--7---|x2 
Ab---0--0--0--0--0--0--0--0--0--0--0--0--0--0--0--0---|
Eb----------------------------------------------------|
Pm:  .  .  .  .  .  .  .  .  .  .  .  .  .  .  .  .

eb-------------------------------------------------------------|
Bb-------------------------------------------------------------|
Gb---5-5-5-5-5-5-5-5-5-5-5-5-5-5-5-5-5-5-5-5-9-9-9-9-9-9-9-9---|
Db---7-7-7-7-7-7-7-7-7-7-7-7-5-5-5-5-5-5-5-5-9-9-9-9-9-9-9-9---|
Ab---0-0-0-0-0-0-0-0-0-0-0-0-3-3-3-3-3-3-3-3-7-7-7-7-7-7-7-7---|
Eb-------------------------------------------------------------|
Pm:  . .   . .   . .   . .

Chorus:
eb-----------------------------------|
Bb-----------------------------------|
Gb---2---------------5-------9-------|
Db---2-x16---3-------5-x16---9-x16---|
Ab---0-------3-x16---3-------7-------|
Eb-----------1-----------------------|

eb---------------------------------------------|
Bb---------------------------------------------|
Gb---2---------------5-------9------7-5-4-2~---|
Db---2-x16---3-------5-x16---9-x8---7-5-4-2~---|
Ab---0-------3-x16---3-------7------5-3-2-0~---|
Eb-----------1---------------------------------|

Verse:
eb----------------------------------------|
Bb----------------------------------------|
Gb------5-5-5-5-5-5-5-5-9-9-9-9-9---2~----|
Db------5-5-5-5-5-5-5-5-9-9-9-9-9---2~----|
Ab------3-3-3-3-3-3-3-3-7-7-7-7-7---0~----|
Eb----------------------------------------|
Pm:                       . .

eb----------------------------------------------------|
Bb----------------------------------------------------|
Gb---------------5----------10-10-10-10--9--9--9--9---|
Db---7--7--7--7--7--7--7--7--7--7--7--7--7--7--7--7---|x2 
Ab---0--0--0--0--0--0--0--0--0--0--0--0--0--0--0--0---|
Eb----------------------------------------------------|
Pm:  .  .  .  .  .  .  .  .  .  .  .  .  .  .  .  .

eb-----------------------------------------------|
Bb-----------------------------------------------|
Gb---5-5-5-5-5-5-5-5-5-5-5-5-5-5-5-5-5-5-5-5-9---|
Db---7-7-7-7-7-7-7-7-7-7-7-7-5-5-5-5-5-5-5-5-9---|
Ab---0-0-0-0-0-0-0-0-0-0-0-0-3-3-3-3-3-3-3-3-7---|
Eb-----------------------------------------------|
Pm:  . .   . .   . .   . .

Chorus:
eb-----------------------------------|
Bb-----------------------------------|
Gb---2---------------5-------9-------|
Db---2-x16---3-------5-x16---9-x16---|
Ab---0-------3-x16---3-------7-------|
Eb-----------1-----------------------|

eb---------------------------------------------|
Bb---------------------------------------------|
Gb---2---------------5-------9------7-5-4-2~---|
Db---2-x16---3-------5-x16---9-x8---7-5-4-2~---|
Ab---0-------3-x16---3-------7------5-3-2-0~---|
Eb-----------1---------------------------------|

Bridge:
                                      
eb---0~---\-|  |--------------------------------------------------|
Bb---0~---\-|  |--------------------------------------------------|
Gb---2~---\-|  |--2-----------2-----------2-----------5----9------|
Db---2~---\-|  |--2-2-3-5-3-2-2-2-3-5-3-2-2-2-3-5-3-2-5-x4-9-x4---|x2
Ab---0~---\-|  |--0-2-3-5-3-2-0-2-3-5-3-2-0-2-3-5-3-2-3----7------|
Eb---0~---\-|  |----0-1-3-1-0---0-1-3-1-0---0-1-3-1-0-------------|

eb------------------------------|
Bb------------------------------|
Gb---10----9----5-4-2-----------|
Db---10-x8-9-x4-5-4-2-x8-5------|x2
Ab---8-----7----3-2-0----5-x8---|
Eb-----------------------3------|

eb---------------------|
Bb---------------------|
Gb---10--9--5-4-2------|
Db---10--9--5-4-2--5---|
Ab---8---7--3-2-0--5---|
Eb-----------------3---|

eb------------------|
Bb------------------|
Gb---10--9--5-4-2---|
Db---10--9--5-4-2---|
Ab---8---7--3-2-0---|
Eb------------------|

eb----------------------------------------------------|
Bb----------------------------------------------------|
Gb---------------5----------10-10-10-10--9--9--9--9---|
Db---7--7--7--7--7--7--7--7--7--7--7--7--7--7--7--7---|x3 
Ab---0--0--0--0--0--0--0--0--0--0--0--0--0--0--0--0---|
Eb----------------------------------------------------|
Pm:  .  .  .  .  .  .  .  .  .  .  .  .  .  .  .  .

eb----------------------------------|
Bb----------------------------------|
Gb---------------5----------10-10---|
Db---7--7--7--7--7--7--7--7--7--7---|
Ab---0--0--0--0--0--0--0--0--0--0---|
Eb----------------------------------|
Pm:  .  .  .  .  .  .  .  .     

Chorus:
eb-----------------------------------|
Bb-----------------------------------|
Gb---2---------------5-------9-------|
Db---2-x16---3-------5-x16---9-x16---|
Ab---0-------3-x16---3-------7-------|
Eb-----------1-----------------------|

eb----------------------------------|
Bb----------------------------------|
Gb---2---------------5-------9------|
Db---2-x16---3-------5-x16---9-x16--|
Ab---0-------3-x16---3-------7------|
Eb-----------1----------------------|

eb-----------------------------------|
Bb-----------------------------------|
Gb---2---------------5-------9-------|
Db---2-x16---3-------5-x16---9-x16---|
Ab---0-------3-x16---3-------7-------|
Eb-----------1-----------------------|

eb-----------------------|
Bb-----------------------|
Gb---2---------------5---|
Db---2-x16---3-------5---|
Ab---0-------3-x16---3---|
Eb-----------1-----------|

End
Tap to rate this tab
 
# A B C D E F G H I J K L M N O P Q R S T U V W X Y Z