Song name
# A B C D E F G H I J K L M N O P Q R S T U V W X Y Z

Rise Against - Death Blossoms tab

Death Blossoms
Tuning: Half Step down

Intro:
eb|-----------------------------------------|
Bb|-----------------------------------------|
Gb|-13-13-13-13-13-13-13--13-13-13-13-13-13-|
Db|-----------------------------------------|
Ab|-11-11-11-11-11-11-11--11-11-11-11-11-11-|
Eb|-----------------------------------------|

Verse 1:
eb|----------------------------------------------------|
Bb|--------------------------------666666666--66666555-|
Gb|-55----------44455--------------555555555-----------|
Db|-77-666-555--00000---x3--Then:--333333333-----------| x2
Ab|-00-777-333-----------------------------------------|
Eb|----000---------------------------------------------|

Chorus: Lead
eb|-------------------------------|
Bb|-------------------------------|
Gb|-1717-131313-121212-1616161617-|
Db|--x-x--x-x-x--x-x-x--x-x-x-x-x-| x3
Ab|-1515-111111-101010-1414141415-|
Eb|-------------------------------|

Post Chorus: Lead
eb|---------------------------------|
Bb|---------------------------------|
Gb|-1010101010101010--1010101010999-|
Db|-1010101010101010---x-x-x-x-xxxx-|
Ab|--8-8-8-8-8-8-8-8---8-8-8-8-8777-|
Eb|---------------------------------|
                   These are 10^^

Verse 2: Guitar 1 plays Verse 1 and Guitar 2 plays:
eb|--------------------------------------------------|
Bb|-----------------------------------------66666555-|
Gb|-5555-----------4444------------------------------|
Db|------6666-5555--------x3--Then:-33333333---------|
Ab|--------------------------------------------------|
Eb|--------------------------------------------------|
Pm: **** **** **** ****             ********

eb|-----------------------------------------------------------------------|
Bb|-----------------------------------------------------------------------|
Gb|-1717-1313----1212-161616------------101010101010101010--1010101010999-|
Db|--x-x--x-x-----x-x--x-x-x--x3--Then:-101010101010101010----------------|
Ab|-1515-1111----1010-141414-------------8-8-8-8-8-8-8-8-8----------------|
Eb|-----------------------------------------------------------------------|

Normal Chorus
Post Chorus:
eb|-----------------------------------|
Bb|-----------------------------------|
Gb|-1010101010101010-9-10-9-5-7-5-7---|
Db|-1010101010101010-9-10-9-5-7-5-7-5-|
Ab|--8-8-8-8-8-8-8-8-7--8-7-3-5-3-5-5-|
Eb|---------------------------------3-|

Solo:
eb|-----------------------------------------------------------------------|
Bb|-1313131313131313-15-171717171717171717-15151515-181818181818181818-17-|
Gb|--x-x-x-x-x-x-x-x--x--x-x-x-x-x-x-x-x-x--x-x-x-x--x-x-x-x-x-x-x-x-x--x-|
Db|-1010101010101010-12-141414141414141414-12121212-151515151515151515-14-|
Ab|-----------------------------------------------------------------------|
Eb|-----------------------------------------------------------------------|

------------------------|
-1717171717171717171717-|
--x-x-x-x-x-x-x-x-x-x-x-|
-1414141414141414141414-|
------------------------|
------------------------|

eb|--------------------------------------------------------------------------|
Bb|--8--8-8-8-8-8-8--8--8--8-8-8-8-8--8--8--8-8-8-8-8-8--8--8--8-8-8-8-8-8-8-|
Gb|--9-101010101010--9--9-1010101010--7--7--9-9-9-9-9-9--7--7--9-9-9-9-9-9-9-|
Db|-10-101010101010-10-10-1010101010-10-10-101010101010-10-10-10101010101010-|
Ab|--------------------------------------------------------------------------|
Eb|--------------------------------------------------------------------------|

eb|-------------------------------------------------------|
Bb|-----------------------------------12121212-1717171717-|
Gb|-5555-7777-9999-7-5--9999-13131313--x-x-x-x--x-x-x-x-x-|
Db|-xxxx-xxxx-xxxx-x-x--xxxx--x-x-x-x--9-9-9-9-1414141414-|
Ab|-3333-5555-7777-5-3--7777-11111111---------------------|
Eb|-------------------------------------------------------|

eb|-xxx-x-x-x-|
Bb|-xxx-x-x-x-|
Gb|-xxx-x-x-x-|
Db|-xxx-x-x-x-|
Ab|-xxx-x-x-x-|
Eb|-xxx-x-x-x-|

Verse 1
Chorus
Ending:
eb|--------------------------------------|
Bb|--------------------------------------|
Gb|-1010101010101010-9-10-9-5-7-5-7------|
Db|-1010101010101010-9-10-9-5-7-5-7-5-7~-|
Ab|--8-8-8-8-8-8-8-8-7--8-7-3-5-3-5-5-7~-|
Eb|---------------------------------3-5~-|
Tap to rate this tab
 
# A B C D E F G H I J K L M N O P Q R S T U V W X Y Z