Song name
# A B C D E F G H I J K L M N O P Q R S T U V W X Y Z

Rise Against - Entertainment chords

Highlighted       Show chord diagrams
All 5ths

INTRO: B D E
|---------|---------|      |---------------|
|---------|---------|      |---------------|
|---------|---------|  x2  |---------------|  REPEAT ALL 2 TIMES
|-----5-4-|---------|      |--5-4-2--------|
|-2-------|---5-4---|      |5--------5-4-2-|
|-------------------|      |---------------|

B5
All we are is Entertainment
Caught up in our own derangement
D5               E5             B5
Tell us what to say and what to do
B5
All we are are pretty faces
Picture perfect bottled rage
 D5             E5                 B5
Packaged synthesized versions of yooouu

 F#5  G5              E5              B5             F#5
We've all made petty fortunes but we can't afford a life
    G5                 A5              B5, B5, B5
Confined to blow our quotes on hotel rooms
 F#5  G5             E5              B5         F#5
They all scream California and it's toppling empire
               G5     A5|
But can't you see the end is coming soon

INTRO
VERSE:

Come one come all the new sensation
Guarantees then obligation
Spotlights follow every single move
Basking here on ten foot stages
Pouty lips and oh so jaded
All as if we have something to prove

CHORUS:

Despite these petty fortunes we still can't afford a life
Confined to pull-out quotes and hotel rooms
They all scream California and it's toppling empire
But can't you see the end it's here
           A5                      E5
And if we cared at all about this unknown hype
               G5                       A5   A#5
than we'd do something more to finally make this right

Bm //
Is this only entertainment
Pull the curtains, places please
       D //                 E //
We've learned to sing and dance and cry on cue
     Bm //
But this is more than entertainment
In a world so sick with pain
     D //          E //
This is the only thing that's real or true

We've all made petty fortunes but we can't afford a life
Confined to pull-out quotes and hotel rooms
They all scream bloody-murder over graves already dug
But can't you see the end

|---------|---------|      |---------------|
|---------|---------|      |---------------|
|---------|---------|  x2  |---------------|  
|-----5-4-|---------|      |--5-4-2--------|
|-2-------|---5-4---|      |5--------5-4-2-|
|-------------------|      |---------------|

|---------|---------|      |---------------|
|---------|---------|      |---------------|
|---------|---------|  x2  |---------------|  
|-----5-4-|---------|      |--5-4-2--------|
|-2-------|---5-4---|      |5--------5s4s2-|
|-------------------|      |---------------|
Tap to rate this tab
# A B C D E F G H I J K L M N O P Q R S T U V W X Y Z