Song name
# A B C D E F G H I J K L M N O P Q R S T U V W X Y Z

Rise Against - Dirt And Roses tab

-------------------------------------------------------------------------------
                             Dirt and Roses - Rise Against
-------------------------------------------------------------------------------
Tabbed by: Josh Orenic
E-mail: jorenic11@gmail.com

Tuning: Eb Ab Db Gb Bb eb

Key: Ab Minor

Song Structure

Intro
Verse
Chorus
Verse
Chorus
Bridge
Outro

Intro

Guitar 1

     Abm                Dbm     Eb         Abm                Dbm     Eb

eb|------------------|------------------|------------------|------------------|
Bb|------------------|------------------|------------------|------------------|
Gb|----------5-------|------------------|----------5-------|------------------|
Db|--7-7-7-7-7-7-7-7-|--7-7-7-7-6-6-6-6-|--7-7-7-7-7-7-7-7-|--7-7-7-7-6-------|
Ab|--0-0-0-0---0-0-0-|--8-8-8-8-7-7-7-7-|--0-0-0-0---0-0-0-|--8-8-8-8-7-------|
Eb|------------------|------------------|------------------|------------------|

     1 & 2 & 3 & 4 &    1 & 2 & 3 & 4 &    1 & 2 & 3 & 4 &    1 & 2 & 3 & 4 &

Guitar 1

     Abm                Dbm     Eb         Abm                Dbm     Eb 

eb|------------------|------------------|------------------|------------------|
Bb|------------------|------------------|------------------|------------------|
Gb|----------5-------|------------------|----------5-------|------------------|
Db|--7-7-7-7-7-7-7-7-|--7-7-7-7-6-6-6-6-|--7-7-7-7-7-7-7-7-|--7-7-7-7-6-6-6-6-|
Ab|--0-0-0-0---0-0-0-|--8-8-8-8-7-7-7-7-|--0-0-0-0---0-0-0-|--8-8-8-8-7-7-7-7-|
Eb|------------------|------------------|------------------|------------------|

     1 & 2 & 3 & 4 &    1 & 2 & 3 & 4 &    1 & 2 & 3 & 4 &    1 & 2 & 3 & 4 & 

Guitar 2

eb|------------------|----------------------|------------------|----------------------|
Bb|--10------10------|----------------------|--10------10------|----------------------|
Gb|------9-------9---|--10-10-12-10-9-9-9-9-|------9-------9---|--10-10-12-10-9-9-9-9-|
Db|------------------|----------------------|------------------|----------------------|
Ab|------------------|----------------------|------------------|----------------------|
Eb|------------------|----------------------|------------------|----------------------|

     1 & 2 & 3 & 4 &    1  &  2  &  3 & 4 &    1 & 2 & 3 & 4 &    1  &  2  &  3 & 4 &

Guitar 1

     Abm                Dbm     Eb         Abm                Dbm

eb|------------------|------------------|------------------|------------------|
Bb|------------------|------------------|------------------|------------------|
Gb|----------5-------|------------------|----------5-------|------------------|
Db|--7-7-7-7-7-7-7-7-|--7-7-7-7-6-6-6-6-|--7-7-7-7-7-7-7-7-|--7-7-------------|
Ab|--0-0-0-0---0-0-0-|--8-8-8-8-7-7-7-7-|--0-0-0-0---0-0-0-|--8-8-------xxxxx-|
Eb|------------------|------------------|------------------|------------------|

     1 & 2 & 3 & 4 &    1 & 2 & 3 & 4 &    1 & 2 & 3 & 4 &    1 & 2 & 3 & 4 &

Guitar 2

eb|------------------|----------------------|------------------|--------------------|
Bb|--10------10------|----------------------|--10------10------|--------------------|
Gb|------9-------9---|--10-10-12-10-9-9-9-9-|------9-------9---|--10-10-------------|
Db|------------------|----------------------|------------------|--------------------|
Ab|------------------|----------------------|------------------|--------------------|
Eb|------------------|----------------------|------------------|--------------------|

     1 & 2 & 3 & 4 &    1  &  2  &  3 & 4 &    1 & 2 & 3 & 4 &    1  &  2 & 3 & 4 & 

Verse

Guitar 1

     Ab5

eb|------------------|------------------|------------------|------------------|
Bb|------------------|------------------|------------------|------------------|
Gb|--2---------------|-(2)--------------|-(2)--------------|-(2)--------------|
Db|--2---------------|-(2)--------------|-(2)--------------|-(2)--------------|
Ab|--0---------------|-(0)--------------|-(0)--------------|-(0)--------------|
Eb|------------------|------------------|------------------|------------------|

Guitar 1

                                           Cb5                Eb5 

     1 & 2 & 3 & 4 &    1 & 2 & 3 & 4 &    1 & 2 & 3 & 4 &    1 & 2 & 3 & 4 & 
eb|------------------|------------------|------------------|------------------|
Bb|------------------|------------------|------------------|------------------|
Gb|-(2)--------------|-(2)--------------|--5-5-5-5-5-5-5-5-|--9-------9-------|
Db|-(2)--------------|-(2)--------------|--5-5-5-5-5-5-5-5-|--9-------9-------|
Ab|-(0)--------------|-(0)--------------|--3-3-3-3-3-3-3-3-|--7-------7-------|
Eb|------------------|------------------|------------------|------------------|

Guitar 1

     Abm                Dbm     Eb         Abm                Dbm     Eb

     1 & 2 & 3 & 4 &    1 & 2 & 3 & 4 &    1 & 2 & 3 & 4 &    1 & 2 & 3 & 4 & 

eb|------------------|------------------|------------------|------------------|
Bb|------------------|------------------|------------------|------------------|
Gb|----------5-------|------------------|----------5-------|------------------|
Db|--7-7-7-7---7-7-7-|------------------|--7-7-7-7---7-7-7-|------------------|
Ab|------------------|--8-8-8-8-7-7-7-7-|------------------|--8-8-8-8-7-7-7-7-|
Eb|------------------|------------------|------------------|------------------|

     1 & 2 & 3 & 4 &    1 & 2 & 3 & 4 &    1 & 2 & 3 & 4 &    1 & 2 & 3 & 4 &
  PM--------------------------------------------------------------------------

Guitar 1

     Abm                Dbm     Eb         Cb5                Eb5

 
eb|------------------|------------------|------------------|------------------|
Bb|------------------|------------------|------------------|------------------|
Gb|----------5-------|------------------|--5-5-5-5-5-5-5-5-|--9-9-9-9-9-9-9-9-|
Db|--7-7-7-7---7-7-7-|------------------|--5-5-5-5-5-5-5-5-|--9-9-9-9-9-9-9-9-|
Ab|------------------|--8-8-8-8-7-7-7-7-|--3-3-3-3-3-3-3-3-|--7-7-7-7-7-7-7-7-|
Eb|------------------|------------------|------------------|------------------|

     1 & 2 & 3 & 4 &    1 & 2 & 3 & 4 &    1 & 2 & 3 & 4 &    1 & 2 & 3 & 4 &
  PM------------------------------------ 

Guitar 2

eb|------------------|------------------|------------------|------------------|
Bb|------------------|------------------|------------------|------------------|
Gb|--14------14------|--14------14------|------------------|------------------|
Db|------------------|------------------|------------------|------------------|
Ab|--12------12------|--12------12------|------------------|------------------|
Eb|------------------|------------------|------------------|------------------|

     1 & 2 & 3 & 4 &    1 & 2 & 3 & 4 &    1 & 2 & 3 & 4 &    1 & 2 & 3 & 4 & 

Chorus

Guitar 1

     Ab5                                   Fb5

eb|------------------|------------------|------------------|------------------|
Bb|------------------|------------------|------------------|------------------|
Gb|--2-2-2-2-2-2-2-2-|--2-2-2-2-2-2-2-2-|--1010101010101010|--1010101010101010|
Db|--2-2-2-2-2-2-2-2-|--2-2-2-2-2-2-2-2-|--1010101010101010|--1010101010101010|
Ab|--0-0-0-0-0-0-0-0-|--0-0-0-0-0-0-0-0-|--8-8-8-8-8-8-8-8-|--8-8-8-8-8-8-8-8-|
Eb|------------------|------------------|------------------|------------------|

     1 & 2 & 3 & 4 &    1 & 2 & 3 & 4 &    1 & 2 & 3 & 4 &    1 & 2 & 3 & 4 &

     Cb5                                   Eb5 

eb|------------------|------------------|------------------|------------------|
Bb|------------------|------------------|------------------|------------------|
Gb|--5-5-5-5-5-5-5-5-|--5-5-5-5-5-5-5-5-|--9-9-9-9-9-9-9-9-|--9-9-9-9-9-9-9-9-|
Db|--5-5-5-5-5-5-5-5-|--5-5-5-5-5-5-5-5-|--9-9-9-9-9-9-9-9-|--9-9-9-9-9-9-9-9-|
Ab|--3-3-3-3-3-3-3-3-|--3-3-3-3-3-3-3-3-|--7-7-7-7-7-7-7-7-|--7-7-7-7-7-7-7-7-|
Eb|------------------|------------------|------------------|------------------|

     1 & 2 & 3 & 4 &    1 & 2 & 3 & 4 &    1 & 2 & 3 & 4 &    1 & 2 & 3 & 4 &

     Ab5                                   Fb5

eb|------------------|------------------|------------------|------------------|
Bb|------------------|------------------|------------------|------------------|
Gb|--2-2-2-2-2-2-2-2-|--2-2-2-2-2-2-2-2-|--1010101010101010|--1010101010101010|
Db|--2-2-2-2-2-2-2-2-|--2-2-2-2-2-2-2-2-|--1010101010101010|--1010101010101010|
Ab|--0-0-0-0-0-0-0-0-|--0-0-0-0-0-0-0-0-|--8-8-8-8-8-8-8-8-|--8-8-8-8-8-8-8-8-|
Eb|------------------|------------------|------------------|------------------|

     1 & 2 & 3 & 4 &    1 & 2 & 3 & 4 &    1 & 2 & 3 & 4 &    1 & 2 & 3 & 4 &

     Cb5                                   Eb5                    Db5 Cb5 Bb5 

eb|------------------|------------------|------------------|------------------|
Bb|------------------|------------------|------------------|------------------|
Gb|--5-5-5-5-5-5-5-5-|--5-5-5-5-5-5-5-5-|--9-9-9-9-9-9-9-9-|--9-9-7---5---4---|
Db|--5-5-5-5-5-5-5-5-|--5-5-5-5-5-5-5-5-|--9-9-9-9-9-9-9-9-|--9-9-7---5---4---|
Ab|--3-3-3-3-3-3-3-3-|--3-3-3-3-3-3-3-3-|--7-7-7-7-7-7-7-7-|--7-7-5---3---2---|
Eb|------------------|------------------|------------------|------------------|

     1 & 2 & 3 & 4 &    1 & 2 & 3 & 4 &    1 & 2 & 3 & 4 &    1 & 2 & 3 & 4 &

Bridge

Guitar 1

     Ab5

eb|------------------|------------------|------------------|------------------|
Bb|------------------|------------------|------------------|------------------|
Gb|--2---------------|-(2)--------------|-(2)--------------|-(2)--------------|
Db|--2---------------|-(2)--------------|-(2)--------------|-(2)--------------|
Ab|--0---------------|-(0)--------------|-(0)--------------|-(0)--------------|
Eb|------------------|------------------|------------------|------------------|

     1 & 2 & 3 & 4 &    1 & 2 & 3 & 4 &    1 & 2 & 3 & 4 &    1 & 2 & 3 & 4 & 

     Abm

eb|--5---------------|-(5)--------------|------------------|------------------|
Bb|--5---------------|-(5)--------------|------------------|------------------|
Gb|--5---------------|-(5)--------------|------------------|------------------|
Db|--7---------------|-(7)--------------|--x-x-x-x-x-x-x-x-|--x-x-x-x-x-x-x-x-|
Ab|--7---------------|-(7)--------------|--x-x-x-x-x-x-x-x-|--x-x-x-x-x-x-x-x-|
Eb|--5---------------|-(5)--------------|--x-x-x-x-x-x-x-x-|--x-x-x-x-x-x-x-x-|

     1 & 2 & 3 & 4 &    1 & 2 & 3 & 4 &    1 & 2 & 3 & 4 &    1 & 2 & 3 & 4 &
                                           pick slide ------------------------

Guitar 1

     Ab5     Eb5        Fb5 Gb5 Fb5 Eb5    Ab5     Eb5        Fb5 Gb5 Fb5 Eb5           

eb|------------------|------------------|------------------|------------------|
Bb|------------------|------------------|------------------|------------------|
Gb|--2---------------|------------------|--2---------------|------------------|
Db|--2-------2-------|--3---5---3---2---|--2-------2-------|--3---5---3---2---|
Ab|--0-------2-------|--3---5---3---2---|--0-------2-------|--3---5---3---2---|
Eb|----------0-------|--1---3---1---0---|----------0-------|--1---3---1---0---|

     1 & 2 & 3 & 4 &    1 & 2 & 3 & 4 &    1 & 2 & 3 & 4 &    1 & 2 & 3 & 4 & 

     Ab5     Eb5        Fb5 Gb5 Fb5 Eb5    Cb5                Eb5

eb|------------------|------------------|------------------|------------------|
Bb|------------------|------------------|------------------|------------------|
Gb|--2---------------|------------------|--5-5-5-5-5-5-5-5-|--9-9-9-9-9-9-9-9-|
Db|--2-------2-------|--3---5---3---2---|--5-5-5-5-5-5-5-5-|--9-9-9-9-9-9-9-9-|
Ab|--0-------2-------|--3---5---3---2---|--3-3-3-3-3-3-3-3-|--7-7-7-7-7-7-7-7-|
Eb|----------0-------|--1---3---1---0---|------------------|------------------|  X2  

     1 & 2 & 3 & 4 &    1 & 2 & 3 & 4 &    1 & 2 & 3 & 4 &    1 & 2 & 3 & 4 &

Guitar 1

     Fb5                Eb5     Cb5 Bb5    Ab5                Gb5

eb|------------------|------------------|------------------|------------------|
Bb|------------------|------------------|------------------|------------------|
Gb|--1010101010101010|--9-9-9-9---------|------------------|------------------|
Db|--1010101010101010|--9-9-9-9-10109-9-|--7-7-7-7-7-7-7-7-|--5-5-5-5-5-5-5-5-|
Ab|--8-8-8-8-8-8-8-8-|--7-7-7-7-10109-9-|--7-7-7-7-7-7-7-7-|--5-5-5-5-5-5-5-5-|
Eb|------------------|----------8-8-7-7-|--5-5-5-5-5-5-5-5-|--3-3-3-3-3-3-3-3-|  X2

Guitar 1

     Fb5                Eb5     Cb5 Bb5    Ab5                Gb5

     1 & 2 & 3 & 4 &    1 & 2 & 3 & 4 &    1 & 2 & 3 & 4 &    1 & 2 & 3 & 4 &

eb|------------------|------------------|------------------|------------------|
Bb|------------------|------------------|------------------|------------------|
Gb|--10--------------|--9---------------|------------------|------------------|
Db|--10--------------|--9-------10--9---|--7---------------|--5---------------|
Ab|--8---------------|--7-------10--9---|--7---------------|--5---------------|
Eb|------------------|----------8---7---|--5---------------|--3---------------|

     1 & 2 & 3 & 4 &    1 & 2 & 3 & 4 &    1 & 2 & 3 & 4 &    1 & 2 & 3 & 4 &

GUitar 1

     Fb5                Eb5     Cb5 Bb5    Abm                Dbm     Eb

eb|------------------|------------------|------------------|------------------|
Bb|------------------|------------------|------------------|------------------|
Gb|--10--------------|--9---------------|------------------|------------------|
Db|--10--------------|--9-------10--9---|----------5-------|------------------|
Ab|--8---------------|--7-------10--9---|--7-7-7-7---7-7-7-|--8-8-8-8-7-7-7-7-|
Eb|------------------|----------8---7---|------------------|------------------|

     1 & 2 & 3 & 4 &    1 & 2 & 3 & 4 &    1 & 2 & 3 & 4 &    1 & 2 & 3 & 4 &
                                        PM------------------------------------

Guitar 1

     Abm                Dbm     Eb         Abm                Dbm     Eb

eb|------------------|------------------|------------------|------------------|
Bb|------------------|------------------|------------------|------------------|
Gb|------------------|------------------|------------------|------------------|
Db|----------5-------|------------------|----------5-------|------------------|
Ab|--7-7-7-7---7-7-7-|--8-8-8-8-7-7-7-7-|--7-7-7-7---7-7-7-|--8-8-8-8-7-7-7-7-|
Eb|------------------|------------------|------------------|------------------|

     1 & 2 & 3 & 4 &    1 & 2 & 3 & 4 &    1 & 2 & 3 & 4 &    1 & 2 & 3 & 4 &
  PM--------------------------------------------------------------------------

Guitar 2

eb|------------------|------------------|------------------|------------------|
Bb|------------------|------------------|------------------|------------------|
Gb|------------------|------------------|------------------|------------------|
Db|------------------|------------------|----------7-------|------------------|
Ab|------------------|------------------|--0-0-0-0---0-0-0-|--8-8-8-8-7-7-7-7-|
Eb|------------------|------------------|------------------|------------------|

     1 & 2 & 3 & 4 &    1 & 2 & 3 & 4 &    1 & 2 & 3 & 4 &    1 & 2 & 3 & 4 &
                                        PM------------------------------------

Guitar 1

     Abm                Dbm

eb|------------------|------------------|------------------|------------------|
Bb|------------------|------------------|------------------|------------------|
Gb|------------------|------------------|------------------|------------------|
Db|----------5-------|------------------|------------------|------------------|
Ab|--7-7-7-7---7-7-7-|--8-8-------------|------------------|------------------|
Eb|------------------|------------------|------------------|------------------|

     1 & 2 & 3 & 4 &    1 & 2 & 3 & 4 &    1 & 2 & 3 & 4 &    1 & 2 & 3 & 4 &
  PM------------------------

Guitar 2

eb|------------------|------------------|------------------|------------------|
Bb|------------------|------------------|------------------|------------------|
Gb|------------------|------------------|------------------|------------------|
Db|----------7-------|--x-x-x-x-x-x-x-x-|------------------|------------------|
Ab|--0-0-0-0---0-0-0-|--x-x-x-x-x-x-x-x-|------------------|------------------|
Eb|------------------|--x-x-x-x-x-x-x-x-|------------------|------------------|

     1 & 2 & 3 & 4 &    1 & 2 & 3 & 4 &    1 & 2 & 3 & 4 &    1 & 2 & 3 & 4 &
  PM-----------------pick slide---------

Outro

Guitar 1

     Ab5                                   Fb5

eb|------------------|------------------|------------------|------------------|
Bb|------------------|------------------|------------------|------------------|
Gb|--2-2-2-2-2-2-2-2-|--2-2-2-2-2-2-2-2-|--1010101010101010|--1010101010101010|
Db|--2-2-2-2-2-2-2-2-|--2-2-2-2-2-2-2-2-|--1010101010101010|--1010101010101010|
Ab|--0-0-0-0-0-0-0-0-|--0-0-0-0-0-0-0-0-|--8-8-8-8-8-8-8-8-|--8-8-8-8-8-8-8-8-|
Eb|------------------|------------------|------------------|------------------|

     1 & 2 & 3 & 4 &    1 & 2 & 3 & 4 &    1 & 2 & 3 & 4 &    1 & 2 & 3 & 4 & 

     Cb5                                   Eb5

eb|------------------|------------------|------------------|------------------|
Bb|------------------|------------------|------------------|------------------|
Gb|--5-5-5-5-5-5-5-5-|--5-5-5-5-5-5-5-5-|--9-9-9-9-9-9-9-9-|--9-9-9-9-9-9-9-9-|
Db|--5-5-5-5-5-5-5-5-|--5-5-5-5-5-5-5-5-|--9-9-9-9-9-9-9-9-|--9-9-9-9-9-9-9-9-|
Ab|--3-3-3-3-3-3-3-3-|--3-3-3-3-3-3-3-3-|--7-7-7-7-7-7-7-7-|--7-7-7-7-7-7-7-7-|
Eb|------------------|------------------|------------------|------------------|  X3

     1 & 2 & 3 & 4 &    1 & 2 & 3 & 4 &    1 & 2 & 3 & 4 &    1 & 2 & 3 & 4 &

Guitar 1

     Ab5                                   Fb5

eb|------------------|------------------|------------------|------------------|
Bb|------------------|------------------|------------------|------------------|
Gb|--2-2-2-2-2-2-2-2-|--2-2-2-2-2-2-2-2-|--1010101010101010|--1010101010101010|
Db|--2-2-2-2-2-2-2-2-|--2-2-2-2-2-2-2-2-|--1010101010101010|--1010101010101010|
Ab|--0-0-0-0-0-0-0-0-|--0-0-0-0-0-0-0-0-|--8-8-8-8-8-8-8-8-|--8-8-8-8-8-8-8-8-|
Eb|------------------|------------------|------------------|------------------|

     1 & 2 & 3 & 4 &    1 & 2 & 3 & 4 &    1 & 2 & 3 & 4 &    1 & 2 & 3 & 4 & 

     Cb5

eb|------------------|------------------|------------------|------------------|
Bb|------------------|------------------|------------------|------------------|
Gb|--5---------------|------------------|------------------|------------------|
Db|--5---------------|------------------|------------------|------------------|
Ab|--3---------------|------------------|------------------|------------------|
Eb|------------------|------------------|------------------|------------------|

     1 & 2 & 3 & 4 &    1 & 2 & 3 & 4 &    1 & 2 & 3 & 4 &    1 & 2 & 3 & 4 &


Please send suggestions, questions, and/or corrections to my e-mail.



************************************

| /   slide up
| \   slide down
| h   hammer-on
| p   pull-off
| ~   vibrato
| +   harmonic
| x   Mute note
| b   Bend
| pb  Pre-bend
| br  Bend release
| pbr Pre-bend release
| brb Bend release bend

************************************
Tap to rate this tab
# A B C D E F G H I J K L M N O P Q R S T U V W X Y Z