Song name
# A B C D E F G H I J K L M N O P Q R S T U V W X Y Z

Rise Against - Endgame tab

Endgame

Tuning: Half-step down



Intro:
eb|------------------------------------|
Bb|------------------------------------|
Gb|-----------------5-55-555--7-77-777-|
Db|-bass intro--2r--5-55-555--7-77-777-|
Ab|-------------2r--3-33-333--5-55-555-|
Eb|-------------0r---------------------|

eb|-----------------------------------------------------|
Bb|-----------------------------------------------------|
Gb|-161616-999-171717-141414-161616-9999-1111-1212-11-9-|
Db|-x-x-x--xxx-x-x-x--x-x-x--x-x-x--xxxx-x-x--x-x--x--x-|
Ab|-141414-777-151515-121212-141414-7777-9-9--1010-9--7-|
Eb|-----------------------------------------------------|

eb|---------------------------------------------------------------|
Bb|---------------------------------------------------------------|
Gb|-161616-999-171717-141414-16-1616-14-1414-11-11111111-12-11-9~-|
Db|-x-x-x--xxx-x-x-x--x-x-x--x--x-x--x--x-x--x--x-x-x-x--x--x--x~-|
Ab|-141414-777-151515-121212-14-1414-12-1212-9--9-9-9-9--10-9--7~-|
Eb|---------------------------------------------------------------|

Verse: part 1
eb|------12*--------------------|
Bb|------12*--------------------|
Gb|------------55555-777--------|
Db|------------55555-777--------|
Ab|------------33333-555--2-3-5-|
Eb|-----------------------------|

Then:
eb|------------------------------------------|
Bb|------------------------------------------|
Gb|-------555------------------555555-777777-|
Db|-22222-555--------x3-Then:--555555-777777-|
Ab|-22222-333-2-3-5------------333333-555555-|
Eb|-00000------------------------------------|

Pre-Chorus:
eb|----0---------------------0----------------|
Bb|------0--------0-1-3--------0--------------|
Gb|-2~-----0---0~---------2~-----0------------|
Db|-2~---------2~---------2~--------5555-7777-|
Ab|-0~---------3~---------0~--------3333-5555-|
Eb|-------------------------------------------|
Pm:                                 **** ****

Chorus:
eb|-------------------------------------------|         eb|----|
Bb|-------------------------------------------|         Bb|----|
Gb|-------------------22222222-4444-7777------|         Gb|----|
Db|-22222222-55555555-22222222-4444-7777---x2-| End on: Db|-2~-|
Ab|-22222222-55555555-00000000-2222-5555------|         Ab|-2~-|
Eb|-00000000-33333333-------------------------|         Eb|-0~-|

Post-Chorus + Verse 2:
eb|-0--------------------------------------------------|
Bb|---0-------------3--5-------------------------------|
Gb|-----5-4-2-0-4-5----4...-find out strumming pattern-|
Db|--------------------2-------------------------------|
Ab|----------------------------------------------------|
Eb|----------------------------------------------------|

eb|---------------7-----------------------------------|
Bb|-------------------7*------------------------------|
Gb|-------------5---7---------------------------------|
Db|-after that:-5---x----(then normal Verse again-x2)-|
Ab|-------------3---5---------------------------------|
Eb|---------------------------------------------------|
eb|-------------------------------------------------------------|
Bb|-121212121212-8-88888-8-888-121212-10-1010-777---------------|
Gb|-x-x-x-x-x-x--x-xxxxx-x-xxx-x-x-x--x--x-x--xxx--2~--------7^-|
Db|-9-9-9-9-9-9--5-55555-5-555-9-9-9--7--7-7--444--2~--5555--7^-|
Ab|------------------------------------------------0~--3333-----|
Eb|-------------------------------------------------------------|
Pm:                                                    ****

Chorus again...

Bridge:
eb|--------------------------------------------------------------------|
Bb|--------------------------------------------------------------------|
Gb|-5---------------------------------5--------------------------------|
Db|-5-5555555---------9999999---------5-5555555---------99999999999999-|
Ab|-3-3333333-7777777-7777777-5555555-3-3333333-7777777-77777777777777-|
Eb|-----------5555555---------3333333-----------5555555----------------|
Pm:   ******* ******* ******* *******   ******* ******* **************
                                                        Slowly release^^

eb|----------------0-000------0-000----------------------------|
Bb|-----3-333------0-000------0-000----------------------------|
Gb|-000-0-000--222---222--------xxx------------5----7----9-----|
Db|-222---222--222---222--222---222--555-5555--5-x8-7-x8-9-x16-|
Ab|-333---333--000---000--222---222--555-5555--3----5----7-----|
Eb|-----------------------000---000--333-3333------------------|

eb|----------------0-000------0-000----------------------------|
Bb|-----3-333------0-000------0-000----------------------------|
Gb|-000-0-000--222---222--------xxx------4444--5-----7-7777777-|
Db|-222---222--222---222--222---222--555-5555--5-x8--7-7777777-|
Ab|-333---333--000---000--222---222--555-5555--3-----5-7777777-|
Eb|-----------------------000---000--333-3333------------------|
Pm:                                                    *******

eb|-0-0-0-0-0-0--0-0-0-0-0-0--0-0-0-0-0-----|
Bb|-5-7-5-7-8-5--5-7-5-7-8-5--5-7-5-7-8--5^-|
Gb|--------------------------------------4^-|
Db|-----------------------------------------|
Ab|-----------------------------------------|
Eb|-----------------------------------------|

Then 4 Times Chorus
Tap to rate this tab
# A B C D E F G H I J K L M N O P Q R S T U V W X Y Z