Song name
# A B C D E F G H I J K L M N O P Q R S T U V W X Y Z

Rise Against - Dirt And Roses tab

Intro:

Rhythm guitar

d#|-------------------------------------------------|
A#|-------------------------------------------------|
F#|-------------------------------------------------|  Repeat 5 times
C#|--7-7-7-7-10-7-7-7--7-7-7-7--6-6-6-6-------------|
G#|--0-0-0-0-0--0-0-0--8-8-8-8--7-7-7-7-------------|
D#|-------------------------------------------------|

End on:

d#|----------------------------------|
A#|----------------------------------|
F#|-------------------------x-x-x-x--|
C#|--7-7-7-7-10-7-7-7--7-7--x-x-x-x--|
G#|--0-0-0-0-0--0-0-0--8-8--x-x-x-x--|
D#|-------------------------x-x-x-x--|


Lead Guitar

d#|-----------------------------------------------------|
A#|--10-10------10-10-----------------------------------|
F#|---------9-9--------9-9--10-12-10-9---9-9------------|  Repeat 3 times
C#|-----------------------------------------------------|
G#|-----------------------------------------------------|
D#|-----------------------------------------------------|

End on:

d#|---------------------------------------|
A#|--10-10------10-10---------------------|
F#|---------9-9--------9-9--10-10---------|
C#|---------------------------------------|
G#|---------------------------------------|
D#|---------------------------------------|





Verse:

Rhythm Guitar

d#|---------------------------------------------|
A#|---------------------------------------------|
F#|---------------------------------------------|
C#|--5-5-5-5-5-5-5-5--9-9-9-9---9-9-9-----------|
G#|--3-3-3-3-3-3-3-3--7-7-7-7---7-7-7-----------|
D#|---------------------------------------------|
                                * *

d#|------------------------------------|
A#|------------------------------------|
F#|------------------------------------| Repeat 3 times
C#|--7-7-7-7-10-7-7-7-7-7-7-7-6-6-6-6--|
G#|--0-0-0-0-0--0-0-0-8-8-8-8-7-7-7-7--|
D#|------------------------------------|
     * * * * *  * * * * * * * * * * *

d#|------------------------------------|
A#|------------------------------------|
F#|------------------------------------|
C#|--5-5-5-5-5-5-5-5--9-9-9-9-9-9-9-9--|
G#|--3-3-3-3-3-3-3-3--7-7-7-7-7-7-7-7--|
D#|------------------------------------|

Lead Guitar

d#|----------------------------------------|
A#|----------------------------------------|
F#|----------------------------------------|
C#|--5-5-5-5-5-5-5-5--2-2-2-2---2-2-2--2~--|
G#|--3-3-3-3-3-3-3-3--2-2-2-2---2-2-2--0~--|
D#|-------------------0-0-0-0---0-0-0------|
                                * *

d#|------------------------------------------------------------------|
A#|------------------------------------------------------------------|
F#|----14-----14-----14-----14---------------------------------------|
C#|--------------------------------5-5-5-5-5-5-5-5--2-2-2-2-2-2-2-2--|
G#|----12-----12-----12-----12-----3-3-3-3-3-3-3-3--2-2-2-2-2-2-2-2--|
D#|-------------------------------------------------0-0-0-0-0-0-0-0--|
Chorus:

Rhythm guitar

d#|--------------------------------------------------------------------|
A#|--------------------------------------------------------------------|
F#|--------------------------------------------------------------------|
C#|--7-7-7-7-7-7-7-7-7-7-7-7-7-7-7-7--3-3-3-3-3-3-3-3-3-3-3-3-3-3-3-3--|
G#|--7-7-7-7-7-7-7-7-7-7-7-7-7-7-7-7--3-3-3-3-3-3-3-3-3-3-3-3-3-3-3-3--|
D#|--5-5-5-5-5-5-5-5-5-5-5-5-5-5-5-5--1-1-1-1-1-1-1-1-1-1-1-1-1-1-1-1--|

d#|----------------------------------------------------------------------|
A#|----------------------------------------------------------------------|
F#|----------------------------------------------------------------------|    Repeat twice
C#|--5-5-5-5-5-5-5-5-5-5-5-5-5-5-5-5--2-2-2-2-2-2-2-2-2-2-2-2-2-2-2-2----|
G#|--3-3-3-3-3-3-3-3-3-3-3-3-3-3-3-3--2-2-2-2-2-2-2-2-2-2-2-2-2-2-2-2----|
D#|-----------------------------------0-0-0-0-0-0-0-0-0-0-0-0-0-0-0-0----|

Lead Guitar

d#|-------------------------------------------------------------------|
A#|-------------------------------------------------------------------|
F#|----------------------------------10101010101010101010101010101010-|
C#|-7-7-7-7-7-7-7-7-7-7-7-7-7-7-7-7-----------------------------------|
G#|-7-7-7-7-7-7-7-7-7-7-7-7-7-7-7-7--8-8-8-8-8-8-8-8-8-8-8-8-8-8-8-8--|
D#|-5-5-5-5-5-5-5-5-5-5-5-5-5-5-5-5-----------------------------------|

d#|--------------------------------------------------------------------|
A#|--------------------------------------------------------------------|
F#|-----------------------------------9-9-9-9-9-9-9-9-9-9-9-9-9-9-9-9--|
C#|-10101010101010101010101010101010-----------------------------------|
G#|-10101010101010101010101010101010--7-7-7-7-7-7-7-7-7-7-7-7-7-7-7-7--|
D#|-8-8-8-8-8-8-8-8-8-8-8-8-8-8-8-8------------------------------------|

d#|---------------------------------------------------------------------|
A#|---------------------------------------------------------------------|
F#|-----------------------------------10101010101010101010101010101010--|
C#|--7-7-7-7-7-7-7-7-7-7-7-7-7-7-7-7------------------------------------|
G#|--7-7-7-7-7-7-7-7-7-7-7-7-7-7-7-7--8-8-8-8-8-8-8-8-8-8-8-8-8-8-8-8---|
D#|--5-5-5-5-5-5-5-5-5-5-5-5-5-5-5-5------------------------------------|



d#|-------------------------------------------------------------------------|
A#|-------------------------------------------------------------------------|
F#|------------------------------------9-9-9-9-9-9-9-9-9----7---5---4---2~--|
C#|--10101010101010101010101010101010-----------------------------------2~--|
G#|--10101010101010101010101010101010--7-7-7-7-7-7-7-7-7----5---3---2---0~--|
D#|--8-8-8-8-8-8-8-8-8-8-8-8-8-8-8-8----------------------------------------|

Bridge:

Part 1:

Rhythm guitar

d#|-------------0~--------|
A#|-------------0~--------|
F#|---2~--------2~--------|
C#|---2~--------2~--------|
G#|---0~--------0~--------|
D#|-----------------------|

Lead guitar

d#|-----------------------------------|
A#|-----------------------------------|
F#|--2~-------------------------------|
C#|--2~-------------------------------|
G#|--0~-------------------------------|
D#|------------------------Pickslide--|

Part 2 (Both guitars)

d#|----------------------------------------------------------------------|
A#|----------------------------------------------------------------------|
F#|----------------------------------------------------------------------|
C#|-7-2-3-5-3-2-7-2-3-5-3-2-7-2-3-5-3-2-5-5-5-5-5-5-5-5-9-9-9-9-9-9-9-9--|
G#|-7-2-3-5-3-2-7-2-3-5-3-2-7-2-3-5-3-2-3-3-3-3-3-3-3-3-7-7-7-7-7-7-7-7--|
D#|-5-0-1-3-1-0-5-0-1-3-1-0-5-0-1-3-1-0----------------------------------|






Part 3 (Both guitars)

d#|------------------------------------------------------------------------|
A#|------------------------------------------------------------------------|
F#|------------------------------------------------------------------------|
C#|-1010101010101010--9-9-9-9--5-5--4-4--2-2-2-2-2-2-2-2--5-5-5-5-5-5-5-5--|
G#|-8-8-8-8-8-8-8-8---7-7-7-7--3-3--2-2--0-0-0-0-0-0-0-0--5-5-5-5-5-5-5-5--|
D#|-------------------------------------------------------3-3-3-3-3-3-3-3--|

Part 3 continued:

Rhythm guitar

d#|------------------------------------------------------------------------|
A#|------------------------------------------------------------------------|
F#---------------------------------------------------------9-9-9-9-9-9-9-9-|
C#|--1010101010101010--9-9-9-9--5-5--4-4--2-2-2-2-2-2-2-2------------------|
G#|--8-8-8-8-8-8-8-8---7-7-7-7--3-3--2-2--0-0-0-0-0-0-0-0--7-7-7-7-7-7-7-7-|
D#|------------------------------------------------------------------------|

d#|---------------------------------------------------------|
A#|---------------------------------------------------------|
F#|---------------------------------------------------------|
C#|--10~---9~----5~--4~--2~----5~----3~----2~---------------|
G#|--8~----7~----3~--2~--0~----5~----3~----2~---------------|
D#|----------------------------3~----1~----0~---------------|

d#|---------------------------------------|                       |-------|
A#|---------------------------------------|                       |-------|
F#|---------------------------| Repeat 4 times, last time ending  |-------|
C#|--7-7-7-7-10-7-7-7-----7---------6-----|                       |--7-7--|
G#|-------------------8-8---8---7-7---7---|                       |--8-8--|
D#|---------------------------------------|                       |-------|

Lead guitar

d#|------------------------------------------------------------------|
A#|------------------------------------------------------------------|
F#|-------------------------------------------------------9~----12~--|
C#|-1010101010101010--9-9-9-9--5-5--4-4--2-2-2-2-2-2-2-2-------------|
G#|-8-8-8-8-8-8-8-8---7-7-7-7--3-3--2-2--0-0-0-0-0-0-0-0--7~----10~--|
D#|------------------------------------------------------------------|

d#|--------------------------------------------------------|
A#|--------------------------------------------------------|
F#|---------------------------------10~---12~----9-12-14~--|
C#|--10~--9~----5~--4~--2~----5~---------------------------|
G#|--8~---7~----3~--2~--0~----5~----8~----10~----7-10-12~--|
D#|---------------------------3~---------------------------|

d#|-----------|
A#|-----------|
F#|--10-10----|
C#|-----------|
G#|--8--8-----|
D#|-----------|

Final chorus second half lead guitar:

d#|----------------------------------------------------------|
A#|----------------------------------------------------------|
F#|--14----10---9-9-9-9-9-9-9-9----14----7----5-5-5-5-5-5-5--|
C#|----------------------------------------------------------|
G#|--12----8----7-7-7-7-7-7-7-7----12----5----3-3-3-3-3-3-3--|
D#|----------------------------------------------------------|

d#|---------------------------------------------------------------|
A#|---------------------------------------------------------------|
F#|--14----5----5-5-5-5-5-5-5-5--7-9-9-9-9-9-9-9-9-9-9-9-9-9-9-9--|
C#|---------------------------------------------------------------|
G#|--12----3----3-3-3-3-3-3-3-3--5-7-7-7-7-7-7-7-7-7-7-7-7-7-7-7--|
D#|---------------------------------------------------------------|

d#|----------------------------------------------------------------|
A#|----------------------------------------------------------------|
F#|--14----10---9-9-9-9-9-9-9-9----14----7----5-5-5-5-5-5-5----14--|
C#|----------------------------------------------------------------|
G#|--12----8----7-7-7-7-7-7-7-7----12----5----3-3-3-3-3-3-3----12--|
D#|----------------------------------------------------------------|
Tap to rate this tab
# A B C D E F G H I J K L M N O P Q R S T U V W X Y Z