Song name
# A B C D E F G H I J K L M N O P Q R S T U V W X Y Z

Rise Against - Behind Closed Doors tab

All the other tabs are in half-step down tuning, which I hate doing because it's 
tedious.. They're all
good- but there's little problems in them and I find it weird that they're all rated 5*

So here's my version in drop D-
It's also a bit tweaked to solve tiny issues with the other versions

This is also covering both guitars that play in the song. I'm only playing by myself and 
don't have a
second guitar so I've tabbed it to get the best of both guitars if you like..

Hope this is better for you!

Tuning: DADGBe (Drop D)

/  slide up
\  slide down
\\\\ pick-slide
~  hold note
* palm muted

=========================================================

Intro: (the 1111's are ones, not elevens)
e|-------------------------------------------------------------------|
B|-------------------------------------------------------------------|
G|---------------------------------66--------------------------------|
D|-8-88888888888-66-44-44444444444-66-11-11111111111-66-44-444444-6--|
A|-8-88888888888-66-44-44444444444-44-11-11111111111-66-44-444444-6--|
D|-8-88888888888-66-44-44444444444----11-11111111111-66-44-444444-6--|
     ***********       ***********       ***********       ******

                X3                                    X1
e|-------------------------------|------------------------------------------|
B|----------------9--------------|------------------------------------------|
G|-----8/10\8--------10\6-8-10---|-6-8--8--8--8--6-6-6-6-8--8--8--8--6-6-6--|
D|-8-11------11-8----------------|-8-10-10-10-10-8-8-8-8-10-10-10-10-8-8-8--|
A|-------------------------------|------------------------------------------|
D|-------------------------------|------------------------------------------|


Verse: (the 1111's are ones, not elevens)
e|-------------------------------------------------------------------------|
B|-------------------------------------------------------------------------|
G|---------------------------------66--------------------------------------|
D|-8-88888888888-66-44-44444444444-66-11-11111111111-66-44-444444-66-66666-|
A|-8-88888888888-66-44-44444444444-44-11-11111111111-66-44-444444-66-66666-|
D|-8-88888888888-66-44-44444444444----11-11111111111-66-44-444444-66-66666-|
     ***********       ***********       ***********       ******    *****

e|-------------------------------------------------|
B|-------------------------------------------------|
G|-5/6~-------5/6\5---------5/6~--5/6\5------------|
D|-----------------6~-----------------------6--8~--|
A|-------------------------------------------------|
D|-------------------------------------------------|


Pre-Chorus:     X3                                X1
e|------------------------------|-------------------------------------------|
B|----------------9-------------|-------------------------------------------|
G|-----8/10\8--------10\6-8-10--|-6-8-8-8-8--6666-8-8-8--5/6\5--------------|
D|-8-10------11-8---------------|-8-10101010-8888-101010-------6-8~---8-----|
A|------------------------------|--------------------------------------\\\\-|
D|------------------------------|--------------------------------------\\\\-|


Chorus:            X3                            X1
e|--------------------------------------|-----------------------|
B|--------------------------------------|-----------------------|
G|--------------------------------6666--|-----------------------|
D|-4-444444-6-666666-8-8888888888-6666--|-4-444444-6-666666-8~~-|
A|-4-444444-6-666666-8-8888888888-4444--|-4-444444-6-666666-8~~-|
D|-4-444444-6-666666-8-8888888888-------|-4-444444-6-666666-8~~-|


Verse:
e|-------------------------------|
B|-------------------------------|
G|-----------5-6----5-6-8--------|   This bit is really awkwardly
D|~~~----------------------------| < timed and quiet, just try to
A|~~~--------3-4----3-4-6--------|   listen out for it
D|~~~----------------------------|


  ____________________________________X2____________________________________
 /                                                                          \
e|------------------------------------|-------------------------------------|
B|--9------9---------9------9---------|--9------9---------11-9----11-9------|
G|---10------10--------10-----10------|---10------10------------------------|
D|-----11------11-11-----11-----11-11-|-----11------11-11-----11------11-11-|
A|------------------------------------|-------------------------------------|
D|------------------------------------|-------------------------------------|

e|-------------------------|
B|-------------------------|
G|-------------------------|
D|-888888888---------------|
A|-888888888-\\\\----------|
D|-888888888-\\\\----------|


Chorus:               X3                            X1
e|--------------------------------------|----------------------------|
B|--------------------------------------|----------------------------|
G|--------------------------------6666--|----------------------------|
D|-4-444444-6-666666-8-8888888888-6666--|-4-444444-6-666666-88888888-|
A|-4-444444-6-666666-8-8888888888-4444--|-4-444444-6-666666-88888888-|
D|-4-444444-6-666666-8-8888888888-------|-4-444444-6-666666-88888888-|


Brigde:         X2                                X2
e|--------------------------------|-8---8---9---9---8---8---9---9---|
B|-9---9---9---9---9---9---9---9--|---9---9---9---9---9---9---9---9-|
G|--10--10--10--10--10--10--10--10|---------------------------------|
D|--------------------------------|---------------------------------|
A|--------------------------------|---------------------------------|
D|--------------------------------|---------------------------------|

  _________________________________X2_________________________________
 /                                                                    \
e|------------------------------|-------------------------------------|
B|------------------------------|-------------------------------------|
G|------------------------------|-------------------------------------|
D|-44444-----6666-44444----6666-|-8888888888888-666-8888888888888-666-|
A|-44444-----6666-44444----6666-|-8888888888888-666-8888888888888-666-|
D|-44444-----6666-44444----6666-|-8888888888888-666-8888888888888-666-|

Chorus:
e|--------------------------------------|
B|--------------------------------------|
G|--------------------------------4444--| X1
D|-4-444444-6-666666-8-8888888888-4444--|
A|-4-444444-6-666666-8-8888888888-6666--|
D|-4-444444-6-666666-8-8888888888-------|

e|--------------------------------------|
B|--------------------------------------|
G|--------------------------------------| X1
D|-4-444444-6-666666-8-8888888888-------|
A|-4-444444-6-666666-8-8888888888-------|
D|-4-444444-6-666666-8-8888888888-------|

e|--------------------------------------|
B|--------------------------------------|
G|--------------------------------4444--| X1
D|-4-444444-6-666666-8-8888888888-4444--|
A|-4-444444-6-666666-8-8888888888-6666--|
D|-4-444444-6-666666-8-8888888888-------|

e|--------------------------------------|
B|--------------------------------------|
G|--------------------------------------| X1
D|-4-444444-6-666666-8-888888888888888--|
A|-4-444444-6-666666-8-888888888888888--|
D|-4-444444-6-666666-8-888888888888888--|

e|--------------------------------------|
B|--------------------------------------|
G|--------------------------------4444--|
D|-4-444444-6-666666-8-8888888888-4444--| X3
A|-4-444444-6-666666-8-8888888888-6666--|
D|-4-444444-6-666666-8-8888888888-------|

e|-------------------|-----|
B|-------------------|-----|
G|-------------------|-----|
D|-4-444444-6-666666-|-8~--|
A|-4-444444-6-666666-|-8~--| 
                        
                    
Tap to rate this tab
# A B C D E F G H I J K L M N O P Q R S T U V W X Y Z