Song name
# A B C D E F G H I J K L M N O P Q R S T U V W X Y Z

Rise Against - Gethsemane tab

-----------------------------------------------------------------------------
                          Rise Against - Gethsemane
-----------------------------------------------------------------------------

Tabbed by: Metalrock4ever

Tuning: CGCFAD

Intro:
D|----------------------------------------------------|
A|----------------------------------------------------|
F|-------11-00------33-11-00-11-------11-00-3333------|
C|-1h333-------1111-------------1h333------------1111-|  
G|----------------------------------------------------|
C|----------------------------------------------------|

D|-------------------------------------------------|
A|-------------------------------------------------|
F|-------11-00------33-11-00-11-------11-00-3333---|
C|-1h333-------1111-------------1h333------------1-|  
G|-------------------------------------------------|
C|-------------------------------------------------|


Verse:
D|----------------------------------------------------|
A|----------------------------------------------------|
F|-------11-00------33-11-00-11-------11-00-3333------|
C|-1h333-------1111-------------1h333------------1111-|  
G|----------------------------------------------------|
C|----------------------------------------------------|

D|-----------------------------------------------------|
A|-----------------------------------------------------|
F|-------11-00------33-11-00-11-------11-00-3333-------|
C|-1h333-------1111-------------1h333------------111---|
G|---------------------------------------------------3-|
C|-----------------------------------------------------|

Chorus:
D|------------------------------|
A|------------------------------|
F|-6666----88-10101010-10101010-| 
C|-6666-66-88-10101010-10101010-|  x3
G|-4444-66-66-8-8-8-8--8-8-8-8--|
C|------66----------------------|

D|-----------|
A|-----------|
F|-6---8-10~-|
C|-6-6-8-10~-|
G|-4-6-6-8~--|
C|---6-------|


Verse 2:
D|----------------------------------------------------|
A|----------------------------------------------------|
F|-------11-00------33-11-00-11-------11-00-3333------|
C|-1h333-------1111-------------1h333------------1111-|  
G|----------------------------------------------------|
C|----------------------------------------------------|

D|-----------------------------------------------------|
A|-----------------------------------------------------|
F|-------11-00------33-11-00-11-------11-00-3333-------|
C|-1h333-------1111-------------1h333------------111---|
G|---------------------------------------------------3-|
C|-----------------------------------------------------|


Chorus 2:
D|------------------------------|
A|------------------------------|
F|-6666----88-10101010-10101010-| 
C|-6666-66-88-10101010-10101010-|  x4
G|-4444-66-66-8-8-8-8--8-8-8-8--|
C|------66----------------------|


Bridge:
D|------------------------|
A|------------------------|
F|----------------6---6-8-|
C|-33-1-33-1-33-3-6-6-4-8-|  x4
G|-33-1-33-1-33-3-4-6-4-6-|
C|-33-1-33-1-33-3---6-----|


Final Chorus:
D|------------------------------|
A|------------------------------|
F|-6666----88-10101010-10101010-| 
C|-6666-66-88-10101010-10101010-|  x4
G|-4444-66-66-8-8-8-8--8-8-8-8--|
C|------66----------------------|

Solo Part:
D|-----------------|
A|---------44-6666-|
F|-6666------------|
C|------66---------|
G|-----------------|
C|-----------------|

D|--------------------------------------------------------8888-|
A|-66-44-66-9-8-4--66-44-66-----------66-44-66-9-8-4-6666------|
F|--------------------------5-3-5h3----------------------------|
C|----------------------------------6--------------------------|
G|-------------------------------------------------------------|
C|-------------------------------------------------------------|


Outro:
D|--------------------------------|
A|--------------------------------|
F|--------------------------------|
C|-3h1-3h1-3h1-3h1-3h1-3h1-3h1-11-|  x3
G|-3h1-3h1-3h1-3h1-3h1-3h1-3h1-11-|
C|-3h1-3h1-3h1-3h1-3h1-3h1-3h1-11-|

D|-------------------------------------|
A|-------------------------------------|
F|-------------------------------------|
C|-3h1-3h1-3h1-3h1-3h1-3h1-3h1-11-3-3~-|
G|-3h1-3h1-3h1-3h1-3h1-3h1-3h1-11-3-3~-|
C|-3h1-3h1-3h1-3h1-3h1-3h1-3h1-11-3-3~-|

Solo Part:
D|--------------------------------|
A|-6h4-6h4-6h4-6h4-6h4-6h4-6h4-44-|
F|--------------------------------|
C|--------------------------------|  x3
G|--------------------------------|
C|--------------------------------|

D|-------------------------------------|
A|-6h4-6h4-6h4-6h4-6h4-6h4-6h4-44------|
F|-------------------------------------|
C|--------------------------------3-3~-|  
G|--------------------------------3-3~-|
C|--------------------------------3-3~-|

************************************

| /   slide up
| \   slide down
| h   hammer-on
| ~   vibrato
| +   harmonic
| x   Mute note
| b   Bend

************************************

If you have any comments/corrections, please say in either the comments box 
or leave me a message. Good luck and enjoy!
Tap to rate this tab
# A B C D E F G H I J K L M N O P Q R S T U V W X Y Z