Song name
# A B C D E F G H I J K L M N O P Q R S T U V W X Y Z

Rise Against - But Tonight We Dance tab

Artist: Rise Against
Song: But Tonight We Dance
Album: The Sufferer & the Witness

I've seen a few tabs for this, most in drop d tuning,
so i figured most of you would like a half-step down
version due to the fact that when i look up rise against tabs
i pre-tune to half-step down assuming most of the songs
will be in said tuning. Guitar 2 parts are really hard
to hear, so i didnt bother trying (besides solo & bridge)

comment with corrections!

(....)-Palm Mute

Verse 1:
e|-----------------------------------------------------------------|
B|-----------------------------------------------------------------|
G|-----------------------------------------------------------------|
D|-----------------------------------------------------------------|
A|-7-7-7-7-7-7-7-7-8-8-8-8-8-8-8-8-5-5-5-5-5-5-5-5-7-7-7-7-7-7-7-7-|
E|-5-5-5-5-5-5-5-5-5-5-5-5-5-5-5-5-3-3-3-3-3-3-3-3-5-5-5-5-5-5-5-5-|
                                                                     X2
e|-----------------------------------------------------------------|
B|-----------------------------------------------------------------|
G|-----------------------------------------------------------------|
D|-----------------------------------------------------------------|
A|-3-3-3-3-3-3-3-3-5-5-5-5-5-5-5-5-2-2-2-2-2-2-2-2-7-7-7-7-7-7-7-7-|
E|-1-1-1-1-1-1-1-1-3-3-3-3-3-3-3-3-0-0-0-0-0-0-0-0-5-5-5-5-5-5-5-5-|

Chorus
e|-----------------------------------------------------------------|
B|-----------------------------------------------------------------|
G|-----------------------------------------------------------------|
D|-3-3-3-3-3-3-3-3-5-5-5-5-5-5-5-5-2-2-2-2-2-2-2-2-7-7-7-7-7-7-7-7-| X3
A|-3-3-3-3-3-3-3-3-5-5-5-5-5-5-5-5-2-2-2-2-2-2-2-2-7-7-7-7-7-7-7-7-|
E|-1-1-1-1-1-1-1-1-3-3-3-3-3-3-3-3-0-0-0-0-0-0-0-0-5-5-5-5-5-5-5-5-|

e|---------------------------------|
B|---------------------------------|
G|---------------------------------|
D|-3-3-3-3-3-3-3-3-5-5-5-5-5-5-5-5-| 
A|-3-3-3-3-3-3-3-3-5-5-5-5-5-5-5-5-|
E|-1-1-1-1-1-1-1-1-3-3-3-3-3-3-3-3-|

Verse 2:
e|-----------------------------------------------------------------|
B|-----------------------------------------------------------------|
G|-----------------------------------------------------------------|
D|-----------------------------------------------------------------|
A|-7---------------8---------------5---------------7---------------|
E|-5---------------5---------------3---------------5---------------|

e|-----------------------------------------------------------------|
B|-----------------------------------------------------------------|
G|-----------------------------------------------------------------|
D|-----------------------------------------------------------------|
A|-3---------------5---------------2---------------7---------------|
E|-1---------------3---------------0---------------5---------------|

Then Play:
e|-----------------------------------------------------------------|
B|-----------------------------------------------------------------|
G|-----------------------------------------------------------------|
D|-----------------------------------------------------------------|
A|-7-7-7-7-7-7-7-7-8-8-8-8-8-8-8-8-5-5-5-5-5-5-5-5-7-7-7-7-7-7-7-7-|
E|-5-5-5-5-5-5-5-5-5-5-5-5-5-5-5-5-3-3-3-3-3-3-3-3-5-5-5-5-5-5-5-5-|
   . . . . . . . . . . . . . . . . . . . . . . . . . . . . . . . .

e|-----------------------------------------------------------------|
B|-----------------------------------------------------------------|
G|-----------------------------------------------------------------|
D|-----------------------------------------------------------------|
A|-3-3-3-3-3-3-3-3-5-5-5-5-5-5-5-5-2-2-2-2-2-2-2-2-7-7-7-7-7-7-7-7-|
E|-1-1-1-1-1-1-1-1-3-3-3-3-3-3-3-3-0-0-0-0-0-0-0-0-5-5-5-5-5-5-5-5-|
   . . . . . . . . . . . . . . . . . . . . . . . .

Chorus:
e|-----------------------------------------------------------------|
B|-----------------------------------------------------------------|
G|-----------------------------------------------------------------|
D|-3-3-3-3-3-3-3-3-5-5-5-5-5-5-5-5-2-2-2-2-2-2-2-2-7-7-7-7-7-7-7-7-| X3
A|-3-3-3-3-3-3-3-3-5-5-5-5-5-5-5-5-2-2-2-2-2-2-2-2-7-7-7-7-7-7-7-7-|
E|-1-1-1-1-1-1-1-1-3-3-3-3-3-3-3-3-0-0-0-0-0-0-0-0-5-5-5-5-5-5-5-5-|

e|---------------------------------|
B|---------------------------------|
G|---------------------------------|
D|-3-3-3-3-3-3-3-3-5-5-5-5-5-5-5-5-| 
A|-3-3-3-3-3-3-3-3-5-5-5-5-5-5-5-5-|
E|-1-1-1-1-1-1-1-1-3-3-3-3-3-3-3-3-|

Bridge Lead:
E|---------------------------------|
B|-5-5-5-5-5-5-3-5-6-6-6-6-6-6-6-6-|
G|-----------------5-5-5-5-5-5-5-5-|
D|---------------------------------| X2
A|---------------------------------|
E|---------------------------------|
   . . . .

Bridge Rhythm
E|---------------------------------|
B|---------------------------------|
G|---------------------------------|
D|-7-7-----------------------------| X2
A|-7-7-----------------------------|
E|-5-5-----------------------------|


E|------------------------------------------------------------------|
B|------------------------------------------------------------------|
G|-----------------1010101010101010-5-5-5-5-5-5-5-5-9-9-9-9-9-9-9-9-|
D|-7-7-7-7-7-7-7-7-1010101010101010-5-5-5-5-5-5-5-5-9-9-9-9-9-9-9-9-| X4
A|-7-7-7-7-7-7-7-7-8-8-8-8-8-8-8-8--3-3-3-3-3-3-3-3-7-7-7-7-7-7-7-7-|
E|-5-5-5-5-5-5-5-5--------------------------------------------------|

SOLO:
(Credit to tboat for helping me out)
e-8-7-------8-7---6----------------3--------5-3---------------------|
B-----10-8------10----------3-5-3-5---5-3---------------------------|
G-------------------------5---------------5-------------------------|
D-------------------------------------------------------------------|
A-------------------------------------------------------------------|
E-------------------------------------------------------------------|

e-5h7h8-7-5-8--10-8-7-8--12/10-10/8-8/10-10/12-12/10-10/8-8/10-1010-|
B-------------------------------------------------------------------|
G-------------------------------------------------------------------|
D-------------------------------------------------------------------|
A-------------------------------------------------------------------|
E-------------------------------------------------------------------|

Solo Rhythm:

E|------------------------------------------------------------------|
B|------------------------------------------------------------------|
G|-----------------1010101010101010-5-5-5-5-5-5-5-5-9-9-9-9-9-9-9-9-|
D|-7-7-7-7-7-7-7-7-1010101010101010-5-5-5-5-5-5-5-5-9-9-9-9-9-9-9-9-| X2
A|-7-7-7-7-7-7-7-7-8-8-8-8-8-8-8-8--3-3-3-3-3-3-3-3-7-7-7-7-7-7-7-7-|
E|-5-5-5-5-5-5-5-5--------------------------------------------------|

End Chorus:
e|-----------------------------------------------------------------|
B|-----------------------------------------------------------------|
G|-----------------------------------------------------------------|
D|-3-3-3-3-3-3-3-3-5-5-5-5-5-5-5-5-2-2-2-2-2-2-2-2-7-7-7-7-7-7-7-7-| X3
A|-3-3-3-3-3-3-3-3-5-5-5-5-5-5-5-5-2-2-2-2-2-2-2-2-7-7-7-7-7-7-7-7-|
E|-1-1-1-1-1-1-1-1-3-3-3-3-3-3-3-3-0-0-0-0-0-0-0-0-5-5-5-5-5-5-5-5-|

e|-------------------|
B|-------------------|
G|-------------------|
D|-3-3-3-3-3-3-3-3-5-| 
A|-3-3-3-3-3-3-3-3-5-|
E|-1-1-1-1-1-1-1-1-3-|

Final Chord:
(Essentially this is just an Abm, i just play it here for comfort)
e|-0-|
B|-1-|
G|-2-| 
D|-2-| 
A|-0-|
E|---|
Tap to rate this tab
# A B C D E F G H I J K L M N O P Q R S T U V W X Y Z