Song name
# A B C D E F G H I J K L M N O P Q R S T U V W X Y Z

Rise Against - Lanterns tab

Rise Against: Lanterns

Tabbed by:  SarkyGuitarist
Tuning:     Half-Step Down
Difficulty: Intermediate
Email:      recon.dudette@hotmail.co.uk

  Key:
   * muted note
   . palm muted

Intro:
                                                                          x2  
e----0----------------0-----------------0---------------------------------
B-----0------3-333-----0-----------------0--------------------------------
G------------0-000-------------7-777-------------9-999--2-----------------
D-22-----222-2-222---------777-7-777---------999-9-999--2-9-8-9-7-9-7-5-2-
A-22-----333-3-333-55----55555-5-555-77----77777-7-777--2-----------------
E-------------------------------------------------------------------------

e------------------------------------------------------------------
B------------------------------------------------------------------
G----12-11-12-5--12-12-12-7--12-11-7--9-------77777--9-------77777-
D-2-- /- /- /-/-- /- /- /-/-- /- /-/--9-99-55-77777--9-99-55-77777-
A-2--10- 9-10-3--10- 9-10-5--10- 9-5--7-99-55-55555--7-99-55-55555-
E-0-------------------------------------77-33----------77-33-------

Verse 1:
                 x3                              
e-----------------------------------------------
B-----------------------------------------------
G-9-------77777--1212121212121212-11111111-7777- all x2
D-9-99-55-77777-- / / / / / / / /- / / / /-////-
A-7-99-55-55555--1010101010101010- 9 9 9 9-5555-
E---77-33---------------------------------------

Chorus:
                                                                       x2
e---------------------------------------------------------------------
B---------------------------------------------------------------------
G-9-999-9-99999999-9-999-9-99999999-5-555-5-55555555-7-777-7-77777777-
D-9-999-9-99999999-9-999-9-99999999-5-555-5-55555555-7-777-7-77777777-
A-7-777-7-77777777-7-777-7-77777777-3-333-3-33333333-5-555-5-55555555-
E---------------------------------------------------------------------

Interlude:

e------------------------
B------------------------
G-9-------77777--9-------
D-9-99-55-77777--9-99-55-
A-7-99-55-55555--7-99-55-
E---77-33----------77-33-

Verse 2:

                 x3                              
e-----------------------------------------------
B-----------------------------------------------
G-9-------77777--1212121212121212-11111111-7777-
D-9-99-55-77777-- / / / / / / / /- / / / /-////-
A-7-99-55-55555--1010101010101010- 9 9 9 9-5555-
E---77-33---------------------------------------


e---0--0000-14-15----0-0000--------------------------------
B---0----------------0-------------------------------------
G-9----------------9--------1212121212121212-11111111-7777-
A-9----------------9-------- / / / / / / / /- / / / /-////-
D-7----------------7--------1010101010101010- 9 9 9 9-5555-
E----------------------------------------------------------
   .    ....         .   .... 

 
Chorus:
                                                                       x2
e---------------------------------------------------------------------
B---------------------------------------------------------------------
G-9-999-9-99999999-9-999-9-99999999-5-555-5-55555555-7-777-7-77777777-
D-9-999-9-99999999-9-999-9-99999999-5-555-5-55555555-7-777-7-77777777-
A-7-777-7-77777777-7-777-7-77777777-3-333-3-33333333-5-555-5-55555555-
E---------------------------------------------------------------------

Bridge:

Part 1:
               x16
e-7*7*7-3*2*0-
B-------------
G-------------
D-------------
A-------------
E-------------

Part 2:
                       x8
e---------------------
B---------------------
G-9-99-7-9-9-12121212-
D-9-99-7-9-9- / / / /-
A-7-77-5-7-7-10101010-
E---------------------


Chorus:
                                                                       x4
e---------------------------------------------------------------------
B---------------------------------------------------------------------
G-9-999-9-99999999-9-999-9-99999999-5-555-5-55555555-7-777-7-77777777-
D-9-999-9-99999999-9-999-9-99999999-5-555-5-55555555-7-777-7-77777777-
A-7-777-7-77777777-7-777-7-77777777-3-333-3-33333333-5-555-5-55555555-
E---------------------------------------------------------------------

Outro:

e---
B---
G-9-
D-9-
A-7-
E---
Tap to rate this tab
 
# A B C D E F G H I J K L M N O P Q R S T U V W X Y Z