Song name
# A B C D E F G H I J K L M N O P Q R S T U V W X Y Z

Rise Against - Blind tab

Tuning: Half-step down


Intro: Clean/Acoustic
eb|------------------------------------|
Bb|-222222--------222222-444444--------|
Gb|-333333-888888-333333-555555-66-666-|
Db|-444444-888888-444444-666666-66-666-|
Ab|-444444-666666-444444-666666-44-444-|
Eb|-222222--------222222-444444--------|

Verse: Distorted
eb|--------------------------------------------|
Bb|--------------------------------------------|
Gb|----------------888888---------------666666-|
Db|---------444444-888888-444444-666666-666666-|
Ab|---------444444-666666-444444-666666-444444-|
Eb|-scratch-222222--------222222-444444--------|

Chorus:
eb|-------------------------------------|
Bb|-------------------------------------|
Gb|----------------------------66666666-|
Db|-88888888-44444444-66666666-66666666-| x2
Ab|-88888888-44444444-66666666-44444444-|
Eb|-66666666-22222222-44444444----------|

eb|----------|
Bb|----------|
Gb|----------|
Db|-88888888-|
Ab|-88888888-|
Eb|-66666666-|

Verse 2:
eb|---------------------------------------------------------------|
Bb|---------------------------------------------------------------|
Gb|---------------------------------------------------------------|
Db|-----------------88-888-888-888-8----------------66-666-666666-|
Ab|-44-444-444-444-466-666-666-666-644-444-444-444-444-444-444444-|
Eb|-22-222-222-222-2----------------22-222-244-444-4--------------|
Pm: ** *** *** *** *** *** *** *** *** *** *** *** *** *** ******
                                                  
eb|----------------------------------------------------------|
Bb|----------------------------------------------------------|
Gb|---------------8-------------------------------6666666666-|
Db|-4-44444444444-8-88888888888-4--------6--------6666666666-|
Ab|-4-44444444444-6-66666666666-4-444444-6-666666-4444444444-|
Eb|-2-22222222222---------------2-222222-4-444444------------|
Pm:   ***********   ***********   ******   ******

Chorus only downstrokes! X2
Chorus x1 with normal strum pattern.

eb|------------|
Bb|------------|
Gb|---------6~-|
Db|-end on:-6~-|
Ab|---------4~-|
Eb|------------|

Solo:   vv These are 1s 
eb|-----11-------------11------------11-------------|
Bb|-2-4-----44-22--2-4----44-22--2-4----44-22-11-31-|
Gb|-------------------------------------------------|
Db|-------------------------------------------------|
Ab|-------------------------------------------------|
Eb|-------------------------------------------------|


eb|-----11-----4------11-----4-----11-----4-22-1-1h2p1h2p1h2p1...--|
Bb|-2-4----44-2----2-4---44-2--2-4----44-2-----------------------2-|
Gb|----------------------------------------------------------------|
Db|----------------------------------------------------------------|
Ab|----------------------------------------------------------------|
Eb|----------------------------------------------------------------|

Chorus x2 downstrokes!

Outro: Clean/Acoustic
eb|------------------------------------|
Bb|-222222--------222222-444444--------|
Gb|-333333-888888-333333-555555-66-666-|
Db|-444444-888888-444444-666666-66-666-|
Ab|-444444-666666-444444-666666-44-444-|
Eb|-222222--------222222-444444--------|

eb|--------------------|
Bb|-2~------2~--4~-----|
Gb|-3~--8~--3~--5~--6~-|
Db|-4~--8~--4~--6~--6~-|
Ab|-4~--6~--4~--6~--4~-|
Eb|-2~------2~--4~-----|
Tap to rate this tab
# A B C D E F G H I J K L M N O P Q R S T U V W X Y Z