Song name
# A B C D E F G H I J K L M N O P Q R S T U V W X Y Z

Rise Against - But Tonight We Dance tab

Guitar 1 (this should be played on bass. And is played differently)
Eb|-----------------------------------------------------------------|
Bb|-----------------------------------------------------------------|
Gb|-----------------------------------------------------------------|
Db|-----------------------------------------------------------------|
Ab|-7-7-7-7-7-7-7-7-8-8-8-8-8-8-8-8-5-5-5-5-5-5-5-5-7-7-7-7-7-7-7-7-|
Eb|-5-5-5-5-5-5-5-5-5-5-5-5-5-5-5-5-3-3-3-3-3-3-3-3-5-5-5-5-5-5-5-5-|

Gb|-----------------------------------------------------------------||
Db|-----------------------------------------------------------------||
Ab|-3-3-3-3-3-3-3-3-5-5-5-5-5-5-5-5-2-2-2-2-2-2-2-2-7-7-7-7-7-7-7-7-||
Eb|-1-1-1-1-1-1-1-1-3-3-3-3-3-3-3-3-0-0-0-0-0-0-0-0-5-5-5-5-5-5-5-5-||X2

Guitar 2 (play after bass plays through once)
Eb|-----------------------------------------------------------------|
Bb|-----------------------------------------------------------------|
Gb|------------------7*---------------------------------------------|
Db|--7*-------------------------------------------------------7*----|
Ab|-------------------------------------------------------7*--------|
Eb|-----------------------------------------------------------------|

Gb|-----------------------------------------------------------------|
Db|-----------------------------------------------------------------|
Ab|-3~--------------5~--------------2~--------------7~--------------|
Eb|-1~--------------3~--------------0~--------------5~--------------|

Chorus
Guitar 1
Eb|-----------------------------------------------------------------|
Bb|-----------------------------------------------------------------|
Gb|-----------------------------------------------------------------|
Db|-3-3-3-3-3-3-3-3-5-5-5-5-5-5-5-5-2-2-2-2-2-2-2-2-7-7-7-7-7-7-7-7-|x3
Ab|-3-3-3-3-3-3-3-3-5-5-5-5-5-5-5-5-2-2-2-2-2-2-2-2-7-7-7-7-7-7-7-7-|
Eb|-1-1-1-1-1-1-1-1-3-3-3-3-3-3-3-3-0-0-0-0-0-0-0-0-5-5-5-5-5-5-5-5-|

Guitar 1
Eb|---------------------------------|
Bb|---------------------------------|
Gb|---------------------------------|
Db|-3-3-3-3-3-3-3-3-5-5-5-5-5-5-5-5-|
Ab|-3-3-3-3-3-3-3-3-5-5-5-5-5-5-5-5-|
Eb|-1-1-1-1-1-1-1-1-3-3-3-3-3-3-3-3-| 

Guitar 2
Eb|--------------------------------------------------------|
Bb|--------------------------------------------------------|
Gb|-10-10-10-10-10-10-10-10-4-4-4-4-4-4-4-4-9-9-9-9-5-4-2--|
Db|-----------------------------------------------------2--|x2
Ab|-8--8--8--8--8--8--8--8--2-2-2-2-2-2-2-2-7-7-7-7-3-2-0--|
Eb|--------------------------------------------------------|

Eb|-----------------------------------------------------------------|
Bb|-----------------------------------------------------------------|
Gb|-5-5-5-4---5-5-5-4---5-5-5-4-5-4-5-4-2---5-5-5-4---5-5-5-4---2---|
Db|---------5---------5-----------------2-----------5---------5-2---|x2
Ab|-3-3-3-2---3-3-3-2---3-3-3-2-3-2-3-2-0---3-3-3-2---3-3-3-2---0---|
Eb|---------3---------3-----------------------------3---------3-----|


Verse x1
Guitar 1 (this should be played on bass. And is played differently)
Eb|-----------------------------------------------------------------|
Bb|-----------------------------------------------------------------|
Gb|-----------------------------------------------------------------|
Db|-----------------------------------------------------------------|
Ab|-7-7-7-7-7-7-7-7-8-8-8-8-8-8-8-8-5-5-5-5-5-5-5-5-7-7-7-7-7-7-7-7-|
Eb|-5-5-5-5-5-5-5-5-5-5-5-5-5-5-5-5-3-3-3-3-3-3-3-3-5-5-5-5-5-5-5-5-|

Gb|-----------------------------------------------------------------|
Db|-----------------------------------------------------------------|
Ab|-3-3-3-3-3-3-3-3-5-5-5-5-5-5-5-5-2-2-2-2-2-2-2-2-7-7-7-7-7-7-7-7-|
Eb|-1-1-1-1-1-1-1-1-3-3-3-3-3-3-3-3-0-0-0-0-0-0-0-0-5-5-5-5-5-5-5-5-|

Verse (cont.)x1
Guitar 1 plays same as before except everything palm muted
Guitar 2
Eb|-----------------------------------------------------------------|
Bb|-----------------6-6-6-6-6-6-6-6-8-8-8-8-8-8-8-8-----------------|
Gb|-2-2-2-2-2-2-2-2-5-5-5-5-5-5-5-5-7-7-7-7-7-7-7-7-2-2-2-2-2-2-2-2-|
Db|-2-2-2-2-2-2-2-2---------------------------------2-2-2-2-2-2-2-2-|
Ab|-----------------------------------------------------------------|
Eb|-----------------------------------------------------------------|
palm muted.........................................................

Eb|-------------------------------------------------------------------------|
Bb|-6-6-6-6-6-6-6-6-8-8-8-8-8-8-8-8-5-5-5-5-5-5-5-5-10-10-10-10-10-10-10-10-|
Gb|-5-5-5-5-5-5-5-5-7-7-7-7-7-7-7-7-4-4-4-4-4-4-4-4--9--9--9--9--9--9--9--9-|
Db|-------------------------------------------------------------------------|
Ab|-------------------------------------------------------------------------|
Eb|-------------------------------------------------------------------------|
palm muted..............................................slowly un-mute

Chorus
Guitar 1
Eb|-----------------------------------------------------------------|
Bb|-----------------------------------------------------------------|
Gb|-----------------------------------------------------------------|
Db|-3-3-3-3-3-3-3-3-5-5-5-5-5-5-5-5-2-2-2-2-2-2-2-2-7-7-7-7-7-7-7-7-|x2
Ab|-3-3-3-3-3-3-3-3-5-5-5-5-5-5-5-5-2-2-2-2-2-2-2-2-7-7-7-7-7-7-7-7-|
Eb|-1-1-1-1-1-1-1-1-3-3-3-3-3-3-3-3-0-0-0-0-0-0-0-0-5-5-5-5-5-5-5-5-|

Chorus (cont.)
Guitar 1
Eb|---------------------------------|
Bb|---------------------------------|
Gb|---------------------------------|
Db|-3-3-3-3-3-3-3-3-5-5-5-5-5-5-5-5-|
Ab|-3-3-3-3-3-3-3-3-5-5-5-5-5-5-5-5-|
Eb|-1-1-1-1-1-1-1-1-3-3-3-3-3-3-3-3-|




Guitar 2
Eb|--------------------------------------------------------|
Bb|--------------------------------------------------------|
Gb|-10-10-10-10-10-10-10-10-4-4-4-4-4-4-4-4-9-9-9-9-5-4-2--|
Db|-----------------------------------------------------2--|x2
Ab|-8--8--8--8--8--8--8--8--2-2-2-2-2-2-2-2-7-7-7-7-3-2-0--|
Eb|--------------------------------------------------------|

Eb|-----------------------------------------------------------------|
Bb|-----------------------------------------------------------------|
Gb|-5-5-5-4---5-5-5-4---5-5-5-4-5-4-5-4-2---5-5-5-4---5-5-5-4---2---|
Db|---------5---------5-----------------2-----------5---------5-2---|x2
Ab|-3-3-3-2---3-3-3-2---3-3-3-2-3-2-3-2-0---3-3-3-2---3-3-3-2---0---|
Eb|---------3---------3-----------------------------3---------3-----|

Bridge
Eb|---------------------------------|
Bb|---------------------------------|
Gb|-2-2-----------------------------|
Db|-2-2-----------------------------|   x2
Ab|-0-0-----------------------------|
Eb|---------------------------------|

Guitar 2
Eb|---------------------------------|
Bb|-5-5-5-5-5-5-3-5-6-6-6-6-6-6-6-6-|
Gb|-----------------5-5-5-5-5-5-5-5-|
Db|---------------------------------|   x2
Ab|---------------------------------|
Eb|---------------------------------|
palm muted........

Guitar 1 & 2
Eb|-------------------------------------------------------------------------|
Bb|-------------------------------------------------------------------------|
Gb|-----------------10-10-10-10-10-10-10-10-5-5-5-5-5-5-5-5-9-9-9-9-9-9-9-9-|
Db|-7-7-7-7-7-7-7-7-10-10-10-10-10-10-10-10-5-5-5-5-5-5-5-5-9-9-9-9-9-9-9-9-|x4
Ab|-7-7-7-7-7-7-7-7-8--8--8--8--8--8--8--8--3-3-3-3-3-3-3-3-7-7-7-7-7-7-7-7-|
Eb|-5-5-5-5-5-5-5-5---------------------------------------------------------|

Solo
Guitar 1
Eb|-------------------------------------------------------------------------|
Bb|-------------------------------------------------------------------------|
Gb|-----------------10-10-10-10-10-10-10-10-5-5-5-5-5-5-5-5-9-9-9-9-9-9-9-9-|
Db|-7-7-7-7-7-7-7-7-10-10-10-10-10-10-10-10-5-5-5-5-5-5-5-5-9-9-9-9-9-9-9-9-|x4
Ab|-7-7-7-7-7-7-7-7-8--8--8--8--8--8--8--8--3-3-3-3-3-3-3-3-7-7-7-7-7-7-7-7-|
Eb|-5-5-5-5-5-5-5-5---------------------------------------------------------|

Guitar 2
eb|--------------------------------------------------------------------|
Bb|-13-12---------13-12------------------------------------------------|
Gb|-------12-12~--------12-14~---------------12-------12b--12h14-16p14-|
Db|---------------------------10h12-14p12-10----10h12------------------|
Ab|--------------------------------------------------------------------|
Eb|--------------------------------------------------------------------|

eb|-------------------------------------------------------------------------|
Bb|--------------------17/15-15/13-13\15-15/17-17\15-15/13-13/12-12\13-13~/-|
Gb|---16s17-17b-16-17-------------------------------------------------------|
Db|-------------------------------------------------------------------------|
Ab|-------------------------------------------------------------------------|
Eb|-------------------------------------------------------------------------|

Chorus
Guitar 1
Eb|-----------------------------------------------------------------|
Bb|-----------------------------------------------------------------|
Gb|-----------------------------------------------------------------|
Db|-3-3-3-3-3-3-3-3-5-5-5-5-5-5-5-5-2-2-2-2-2-2-2-2-7-7-7-7-7-7-7-7-|x2
Ab|-3-3-3-3-3-3-3-3-5-5-5-5-5-5-5-5-2-2-2-2-2-2-2-2-7-7-7-7-7-7-7-7-|
Eb|-1-1-1-1-1-1-1-1-3-3-3-3-3-3-3-3-0-0-0-0-0-0-0-0-5-5-5-5-5-5-5-5-|

Chorus (cont.)
Guitar 1
Eb|---------------------------------|
Bb|---------------------------------|
Gb|---------------------------------|
Db|-3-3-3-3-3-3-3-3-5-5-5-5-5-5-5-5-|
Ab|-3-3-3-3-3-3-3-3-5-5-5-5-5-5-5-5-|
Eb|-1-1-1-1-1-1-1-1-3-3-3-3-3-3-3-3-|

Ending Chord (clean)
Guitar 1
Eb|---|
Bb|---|
Gb|-6-|
Db|-7-|
Ab|-7-|
Eb|-5-|
Tap to rate this tab
 
# A B C D E F G H I J K L M N O P Q R S T U V W X Y Z