Song name
# A B C D E F G H I J K L M N O P Q R S T U V W X Y Z

Rise Against - For Fiona tab

-------------------------------------------------------------------------------
			     For Fiona - (Rise Against) Tim McIlrath cover
-------------------------------------------------------------------------------
Tabbed by: gregoru571
E-mail: gregoru571@o2.pl

Tuning: half step down


intro

D#|----------------------------|----------------------------|
A#|--0-----0--0--0--0--0--0----|--2-----2--2--2--2--2--2----|
F#|--4-----4--4--4--4--4--4----|--4-----4--4--4--4--4--4----|
C#|--4-----4--4--4--4--4--4----|--4-----4--4--4--4--4--4----|
G#|----------------------------|----------------------------|
D#|----------------------------|----------------------------|


----------------------------|----------------------------|
----------------------------|----------------------------|
--8-----8--8--8--8--8--8----|--6-----6--6--6--6--6--6----|
--8-----8--8--8--8--8--8----|--8-----8--8--8--8--8--8----|
--6-----6--6--6--6--6--6----|--6-----6--6--6--6--6--6----|
----------------------------|----------------------------|


----------------------------|----------------------------|
----------------------------|----------------------------|
--4--4--4--4--6--6--6--6----|--8--8--8--8--6--6--6--6----|
--6--6--6--6--x--x--x--x----|--4--4--4--4--4--4--4--4----|
--6--6--6--6--6--6--6--6----|--4--4--4--4--4--4--4--4----|
----------------------------|----------------------------|


----------------------------|----------------------------|
----------------------------|----------------------------|
--1--------1--1--1--1--1----|--3--------3--3--3--3--3----|
--2--------2--2--2--2--2----|--4--------4--4--4--4--4----|
--2--------2--2--2--2--2----|--4--------4--4--4--4--4----|
----------------------------|----------------------------|

verse1

----------------------------|----------------------------|
--4-----4--------4--4-------|--4--4--4--------4--4--4----|
--4-----4--------4--4-------|--4--4--4--------4--4--4----|
--2-----2--------2--2-------|--2--2--2--------2--2--2----|
--2-----2--------2--2-------|--2--2--2--------2--2--2----|
----------------------------|----------------------------|


----------------------------|----------------------------|
--4-----4-----4--4--4--2----|--2--2--2--2--2--2--2--2----|
--3-----3-----3--3--3--3----|--3--3--3--3--3--3--3--3----|
--4-----4-----4--4--4--4----|--4--4--4--4--4--4--4--4----|
----------------------------|----------------------------|
----------------------------|----------------------------|


----------------------------|----------------------------|
--4-----4--------4--4-------|--4--4--4--------4--4--4----|
--4-----4--------4--4-------|--4--4--4--------4--4--4----|
--6-----6--------6--6-------|--6--6--6--------6--6--6----|
--6-----6--------6--6-------|--6--6--6--------6--6--6----|
----------------------------|----------------------------|


----------------------------|----------------------------|
--4-----4--------4--4-------|--4--4--4--------4--4--4----|
--4-----4--------4--4-------|--4--4--4--------4--4--4----|
--4-----4--------4--4-------|--4--4--4--------4--4--4----|
--6-----6--------6--6-------|--6--6--6--------6--6--6----|
----------------------------|----------------------------|


----------------------------|----------------------------|
--4-----4--------4--4-------|--4--4--4--------4--4--4----|
--4-----4--------4--4-------|--4--4--4--------4--4--4----|
--2-----2--------2--2-------|--2--2--2--------2--2--2----|
--2-----2--------2--2-------|--2--2--2--------2--2--2----|
----------------------------|----------------------------|


----------------------------|----------------------------|
--4-----4--------4--4--4----|--4--2--2--2--2--2--2--2----|
--3-----3--------3--3--3----|--3--3--3--3--3--3--3--3----|
--4-----4--------4--4--4----|--4--4--4--4--4--4--4--4----|
----------------------------|----------------------------|
----------------------------|----------------------------|


----------------------------|----------------------------|-------|-------|
--4-----4--------4--4-------|--4--4--4--------4--4--4----|--2----|--2----|
--4-----4--------4--4-------|--4--4--4--------4--4--4----|--3----|--3----|
--2-----2--------2--2-------|--2--2--2--------2--2--2----|--4----|--4----|
--2-----2--------2--2-------|--2--2--2--------2--2--2----|--4----|--4----|
----------------------------|----------------------------|-------|-------|


----------------------------|----------------------------|
----------------------------|----------------------------|
----------------------------|----------------------------|
--2-----2--2--2--2--2--2----|--2--2--2--2--2--2--2--2----|
--2-----2--2--2--2--2--2----|--2--2--2--2--2--2--2--2----|
--0-----0--0--0--0--0--0----|--0--0--0--0--0--0--0--0----|


----------------------------|----------------------------|
----------------------------|----------------------------|
----------------------------|----------------------------|
--4-----4--4--4--4--4--4----|--4--4--4--4--4--4--4--4----|
--4-----4--4--4--4--4--4----|--4--4--4--4--4--4--4--4----|
--2-----2--2--2--2--2--2----|--2--2--2--2--2--2--2--2----|


----------------------------|----------------------------|
----------------------------|----------------------------|
----------------------------|----------------------------|
--6-----6--6--6--6--6--6----|--6--6--6--6--6--6--6--6----|
--6-----6--6--6--6--6--6----|--6--6--6--6--6--6--6--6----|
--4-----4--4--4--4--4--4----|--4--4--4--4--4--4--4--4----|


----------------------------|
----------------------------|
--4-----4--4--4--4--4--4----|
--4-----4--4--4--4--4--4----|
--2-----2--2--2--2--2--2----|
----------------------------|


----------------------------------------------------|
----------------------------------------------------|
--4-----4-----4-----4-----4-----4-----4-----4--4----|
--4-----4-----4-----4-----4-----4-----4-----4--4----|
--2-----2-----2-----2-----2-----2-----2-----2--2----|
----------------------------------------------------|


----------------------------|----------------------------|
----------------------------|----------------------------|
----------------------------|----------------------------|
--2-----2--2--2--2--2--2----|--2--2--2--2--2--2--2--2----|
--2-----2--2--2--2--2--2----|--2--2--2--2--2--2--2--2----|
--0-----0--0--0--0--0--0----|--0--0--0--0--0--0--0--0----|


----------------------------|----------------------------|
----------------------------|----------------------------|
----------------------------|----------------------------|
--4-----4--4--4--4--4--4----|--4--4--4--4--4--4--4--4----|
--4-----4--4--4--4--4--4----|--4--4--4--4--4--4--4--4----|
--2-----2--2--2--2--2--2----|--2--2--2--2--2--2--2--2----|


----------------------------|----------------------------|-------|-------|
----------------------------|----------------------------|-------|-------|
----------------------------|----------------------------|-------|-------|
--2-----2--2--2--2--2--2----|--2--2--2--2--2--2--2--2----|--4----|--4----|
--2-----2--2--2--2--2--2----|--2--2--2--2--2--2--2--2----|--4----|--4----|
--0-----0--0--0--0--0--0----|--0--0--0--0--0--0--0--0----|--2----|--2----|

chorus

----------------------------|----------------------------|
----------------------------|----------------------------|
--4-----------4-----4--4----|--4-----------4-----4--4----|
--4-----------4-----4--4----|--4-----------4-----4--4----|
--2-----------2-----2--2----|--2-----------2-----2--2----|
----------------------------|----------------------------|


----------------------------|----------------------------|
--------------7-----7--7----|--7-----7--7--7--7--7--7----|
--8-----------8-----8--8----|--8-----8--8--8--8--8--8----|
--8-----------8-----8--8----|--8-----8--8--8--8--8--8----|
--6-----------6-----6--6----|--6-----6--6--6--6--6--6----|
----------------------------|----------------------------|


----------------------------|----------------------------|
----------------------------|----------------------------|
----------------------------|----------------------------|
--6-----------6-----6--6----|--4-----------4-----4--4----|
--6-----------6-----6--6----|--4-----------4-----4--4----|
--4-----------4-----4--4----|--2-----------2-----2--2----|


----------------------------|----------------------------|
--0-----------0-----0--0----|--0--0--0--0--0--0--0--0----|
--1-----------1-----1--1----|--1--1--1--1--1--1--1--1----|
--2-----------2-----2--2----|--2--2--2--2--2--2--2--2----|
--2-----------2-----2--2----|--2--2--2--2--2--2--2--2----|
--0-----------0-----0--0----|--0--0--0--0--0--0--0--0----|


----------------------------|----------------------------|
----------------------------|----------------------------|
--4-----------4-----4--4----|--4-----------4-----4--4----|
--4-----------4-----4--4----|--4-----------4-----4--4----|
--2-----------2-----2--2----|--2-----------2-----2--2----|
----------------------------|----------------------------|


----------------------------|----------------------------|
--------------7-----7--7----|--7-----7--7--7--7--7--7----|
--8-----------8-----8--8----|--8-----8--8--8--8--8--8----|
--8-----------8-----8--8----|--8-----8--8--8--8--8--8----|
--6-----------6-----6--6----|--6-----6--6--6--6--6--6----|
----------------------------|----------------------------|


----------------------------|----------------------------|
----------------------------|----------------------------|
----------------------------|----------------------------|
--6-----------6-----6--6----|--4-----------4-----4--4----|
--6-----------6-----6--6----|--4-----------4-----4--4----|
--4-----------4-----4--4----|--2-----------2-----2--2----|


----------------------------|----------------------------|
----------------------------|----------------------------|
--1-----1--1--1--1--1--1----|--3-----3--3--3--3--3--3----|
--2-----2--2--2--2--2--2----|--4-----4--4--4--4--4--4----|
--2-----2--2--2--2--2--2----|--4-----4--4--4--4--4--4----|
--0-----0--0--0--0--0--0----|----------------------------|

verse2

----------------------------|----------------------------|
----------------------------|----------------------------|
--11----11-------11-11------|--11-11-11-------11-11-11---|
--9-----9--------9--9-------|--9--9--9--------9--9--9----|
--7-----7--------7--7-------|--7--7--7--------7--7--7----|
----------------------------|----------------------------|


----------------------------|----------------------------|
----------------------------|----------------------------|
--11----11----11-11-11-11---|--11-11-11-11-11-11-11-11---|
--8-----8-----8--8--8--8----|--8--8--8--8--8--8--8--8----|
--9-----9-----9--9--9--9----|--9--9--9--9--9--9--9--9----|
----------------------------|----------------------------|


----------------------------|----------------------------|
----------------------------|----------------------------|
--11----11-------11-11------|--11-11-11-------11-11-11---|
--9-----9--------9--9-------|--9--9--9--------9--9--9----|
--11----11-------11-11------|--11-11-11-------11-11-11---|
----------------------------|----------------------------|


----------------------------|----------------------------|
----------------------------|----------------------------|
--11----11----11-11-11-11---|--11-11-11-11-11-11-11-11---|
--9-----9-----9--9--9--9----|--9--9--9--9--9--9--9--9----|
--9-----9-----9--9--9--9----|--9--9--9--9--9--9--9--9----|
----------------------------|----------------------------|


----------------------------|----------------------------|
----------------------------|----------------------------|
--11----11-------11-11------|--11-11-11-------11-11-11---|
--9-----9--------9--9-------|--9--9--9--------9--9--9----|
--7-----7--------7--7-------|--7--7--7--------7--7--7----|
----------------------------|----------------------------|


----------------------------|----------------------------|
----------------------------|----------------------------|
--11----11-------11-11------|--11-11-11-------11-11-11---|
--8-----8--------8--8-------|--8--8--8--------8--8--8----|
--9-----9--------9--9-------|--9--9--9--------9--9--9----|
----------------------------|----------------------------|


----------------------------|----------------------------|-------|----|
----------------------------|----------------------------|-------|----|
--11----11----11-11-11-11---|--11-11-11-11-11-11-11-11---|--11---|----|
--9-----9-----9--9--9--9----|--9--9--9--9--9--9--9--9----|--8----|----|
--7-----7-----7--7--7--7----|--7--7--7--7--7--7--7--7----|--9----|----|
----------------------------|----------------------------|-------|----|

chorus

----------------------------|----------------------------|
----------------------------|----------------------------|
--4-----------4-----4--4----|--4-----------4-----4--4----|
--4-----------4-----4--4----|--4-----------4-----4--4----|
--2-----------2-----2--2----|--2-----------2-----2--2----|
----------------------------|----------------------------|


----------------------------|----------------------------|
--------------7-----7--7----|--7-----7--7--7--7--7--7----|
--8-----------8-----8--8----|--8-----8--8--8--8--8--8----|
--8-----------8-----8--8----|--8-----8--8--8--8--8--8----|
--6-----------6-----6--6----|--6-----6--6--6--6--6--6----|
----------------------------|----------------------------|


----------------------------|----------------------------|
----------------------------|----------------------------|
----------------------------|----------------------------|
--6-----------6-----6--6----|--4-----------4-----4--4----|
--6-----------6-----6--6----|--4-----------4-----4--4----|
--4-----------4-----4--4----|--2-----------2-----2--2----|


----------------------------|----------------------------|
--0-----------0-----0--0----|--0--0--0--0--0--0--0--0----|
--1-----------1-----1--1----|--1--1--1--1--1--1--1--1----|
--2-----------2-----2--2----|--2--2--2--2--2--2--2--2----|
--2-----------2-----2--2----|--2--2--2--2--2--2--2--2----|
--0-----------0-----0--0----|--0--0--0--0--0--0--0--0----|


----------------------------|----------------------------|
----------------------------|----------------------------|
--4-----------4-----4--4----|--4-----------4-----4--4----|
--4-----------4-----4--4----|--4-----------4-----4--4----|
--2-----------2-----2--2----|--2-----------2-----2--2----|
----------------------------|----------------------------|


----------------------------|----------------------------|
--------------7-----7--7----|--7-----7--7--7--7--7--7----|
--8-----------8-----8--8----|--8-----8--8--8--8--8--8----|
--8-----------8-----8--8----|--8-----8--8--8--8--8--8----|
--6-----------6-----6--6----|--6-----6--6--6--6--6--6----|
----------------------------|----------------------------|


----------------------------|----------------------------|
----------------------------|----------------------------|
----------------------------|----------------------------|
--6-----------6-----6--6----|--4-----------4-----4--4----|
--6-----------6-----6--6----|--4-----------4-----4--4----|
--4-----------4-----4--4----|--2-----------2-----2--2----|


----------------------------|----------------------------|--------2-------|
----------------------------|----------------------------|-----0-----0----|
--1-----------1-----1--1----|--3-----------3-----3--3----|--4-------------|
--2-----------2-----2--2----|--4-----------4-----4--4----|----------------|
--2-----------2-----2--2----|--4-----------4-----4--4----|----------------|
--0-----------0-----0--0----|----------------------------|----------------|


----------------|--------2-------|----------------|--------2-------|
----------------|-----0-----0----|-----0----------|-----0-----0----|
--3--4----------|--3-------------|--3-------------|--1-------------|
----------------|----------------|----------------|----------------|
----------------|----------------|----------------|----------------|
----------------|----------------|----------------|----------------|


----------------|-------|----------------------------|--------2-------|
-----0----------|--2----|--2--2--2--2--2--2--2--2----|-----0-----0----|
--1-------------|--3----|--3--3--3--3--3--3--3--3----|--4-------------|
----------------|--4----|--4--4--4--4--4--4--4--4----|----------------|
----------------|-------|----------------------------|----------------|
----------------|-------|----------------------------|----------------|


----------------|--------2-------|----------------|--------2-------|
----------------|-----0-----0----|-----0----------|-----0-----0----|
--3--4----------|--3-------------|--3-------------|--1-------------|
----------------|----------------|----------------|----------------|
----------------|----------------|----------------|----------------|
----------------|----------------|----------------|----------------|


----------------|-------||
-----0----------|--2----||
--1-------------|--3----||
----------------|--4----||
----------------|-------||
----------------|-------||


************************************

| /   slide up
| \   slide down
| h   hammer-on
| p   pull-off
| ~   vibrato
| +   harmonic
| x   Mute note
| b   Bend
| pb  Pre-bend
| br  Bend release
| pbr Pre-bend release
| brb Bend release bend

************************************
Tap to rate this tab
# A B C D E F G H I J K L M N O P Q R S T U V W X Y Z