Song name
# A B C D E F G H I J K L M N O P Q R S T U V W X Y Z

Rise Against - Survive Acoustic tab

**********
SURVIVE (ACOUSTIC)
Rise Against
As Performed in 2012 at Vans Warped Tour
**********


Tabbed by ssjEasterBunny
Half-step down tuning (Eb Ab Db Gb Bb Eb)


To watch the source video, go to www.youtube.com/watch?v=Y8Gm_izOpXg.
The song occasionally dips into 7/8 time for individual measures; keep an eye out 
for where those changes are notated.



INTRO

 4/4
E|-----------------|-----------------|-----------------|-----------------|
B|-----------------|-----------------|-----------------|-----------------|
G|-8-8---9---9-9-9-|-8-8---9---9-9-9-|-8-8---9---9-9-9-|-8-8---9---9-9-9-|
D|-9-9---9---9-9-9-|-9-9---9---9-9-9-|-9-9---9---9-9-9-|-9-9---9---9-9-9-|
A|-x-x---x---x-x-x-|-x-x---x---x-x-x-|-0-0-0-0---0-0-0-|-0-0-0-0---0-0-0-|
E|-9-9-9-9---9-9-9-|-9-9-9-9---9-9-9-|-----------------|-----------------|
       PM                PM                PM                PM

 4/4
E|-----------------|-----------------|-----------------|-----------------|
B|-----------------|-------0---0-0-0-|-----------------|-----------------|
G|-8-8---9---9-9-9-|-----3-3---3-3-3-|-8-8---9---9-9-9-|-8-8---8-8-8-8-8-|
D|-9-9---9---9-9-9-|---4---4---4-4-4-|-9-9---9---9-9-9-|-9-9---9-9-9-9-9-|
A|-x-x---x---x-x-x-|-4---------4-4-4-|-0-0-0-0---0-0-0-|-x-x---x-x-x-x-x-|
E|-7-7-7-7---7-7-7-|-----------------|-----------------|-7-7-7-7-7-7-7-7-|
       PM                                  PM                PM



VERSE

 4/4
E|-----------------|-----------------|-----------------|-----------------|
B|-----------------|-----------------|-----------------|-----------------|
G|-8-8---9---9-9-9-|-8-8---9---9-9-9-|-8-8---9---9-9-9-|-8-8---9---9-9-9-|
D|-9-9---9---9-9-9-|-9-9---9---9-9-9-|-9-9---9---9-9-9-|-9-9---9---9-9-9-|
A|-x-x---x---x-x-x-|-x-x---x---x-x-x-|-0-0-0-0---0-0-0-|-0-0-0-0---0-0-0-|
E|-9-9-9-9---9-9-9-|-9-9-9-9---9-9-9-|-----------------|-----------------|
       PM                PM                PM                PM

 4/4
E|-----------------|-----------------|-----------------|-----------------|
B|-----------------|-----------------|-----------------|-----------------|
G|-8-8---9---9-9-9-|-3-3---3---3-3-3-|-8-8---9---9-9-9-|-8-8---8---8-8-8-|
D|-9-9---9---9-9-9-|-4-4---4---4-4-4-|-9-9---9---9-9-9-|-9-9---9---9-9-9-|
A|-x-x---x---x-x-x-|-4-4-4-4---4-4-4-|-0-0-0-0---0-0-0-|-x-x---x---x-x-x-|
E|-7-7-7-7---7-7-7-|-2-2-2-2---2-2-2-|-----------------|-7-7-7-7---7-7-7-|
       PM                PM                PM                PM

 4/4
E|-----------------|-----------------|-----------------|-----------------|
B|-----------------|-----------------|-----------------|-----------------|
G|-8-8---9---9-9-9-|-8-8---9---9-9-9-|-8-8---9---9-9-9-|-8-8---9---9-9-9-|
D|-9-9---9---9-9-9-|-9-9---9---9-9-9-|-9-9---9---9-9-9-|-9-9---9---9-9-9-|
A|-x-x---x---x-x-x-|-x-x---x---x-x-x-|-0-0-0-0---0-0-0-|-0-0-0-0---0-0-0-|
E|-9-9-9-9---9-9-9-|-9-9-9-9---9-9-9-|-----------------|-----------------|
       PM                PM                PM                PM

 4/4                                                   7/8
E|-----------------|-----------------|-----------------|---------------|
B|-----------------|-----------------|-----------------|---------------|
G|-8-8---9---9-9-9-|-3-3---3---3-3-3-|-8-8---9---9-9-9-|-8---8---------|
D|-9-9---9---9-9-9-|-4-4---4---4-4-4-|-9-9---9---9-9-9-|-9---9---6-6-6-|
A|-x-x---x---x-x-x-|-4-4-4-4---4-4-4-|-0-0-0-0---0-0-0-|-x---x---6-6-6-|
E|-7-7-7-7---7-7-7-|-2-2-2-2---2-2-2-|-----------------|-7---7---4-4-4-|
       PM                PM                PM            *   *



CHORUS (and OUTRO)

 4/4
E|-----------------|-----------------|-----------------|-----------------|
B|-----------------|-----------------|-----------------|-----------------|
G|-6---6-6---6-6-6-|---6-6-6---9-9-9-|-----------------|-----------------|
D|-6---6-6---6-6-6-|---6-6-6---9-9-9-|-9---9-9---9-9-9-|---9-9-9---6-6-6-|--|
A|-4---4-4---4-4-4-|---4-4-4---7-7-7-|-9---9-9---9-9-9-|---9-9-9---6-6-6-|  |
E|-----------------|-----------------|-7---7-7---7-7-7-|---7-7-7---4-4-4-|  |
                                                                            |
                                                                            | x2
 4/4                                                                        |
E|-0---0-0---0-0-0-|---0-0-0---------|-0---0-0---0-0-0-|---0-0-0---------|  |
B|-0---0-0---0-0-0-|---0-0-0---------|-0---0-0---0-0-0-|---0-0-0---------|  |
G|-2---2-2---2-2-2-|---2-2-2---------|-4---4-4---4-4-4-|---4-4-4---------|--|
D|-2---2-2---2-2-2-|---2-2-2---2-2-2-|-4---4-4---4-4-4-|---4-4-4---6-6-6-|
A|-0---0-0---0-0-0-|---0-0-0---2-2-2-|-2---2-2---2-2-2-|---2-2-2---6-6-6-|
E|-----------------|-----------0-0-0-|-----------------|-----------4-4-4-|




BREAKDOWN

 4/4               7/8             4/4               7/8
E|-----------------|---------------|-----------------|---------------|
B|---0-5-0-4-0-5-0-|-4-0-5-0-------|---0-5-0-4-0-5-0-|---------------|
G|-----------------|---------------|-----------------|---------------|
D|-7---------------|---------6-6-6-|-7---------------|-9---9---6-6-6-|
A|-7---------------|---------6-6-6-|-7---------------|-9---9---6-6-6-|
E|-5---------------|---------4-4-4-|-5---------------|-7---7---4-4-4-|


 4/4               7/8             4/4
E|-----------------|---------------|-----------------|-----------------|
B|---0-5-0-4-0-5-0-|-4-0-5-0-------|---0-5-0-4-0-5-0-|-----------------|
G|-----------------|---------------|-----------------|-----------------|
D|-7---------------|---------6-6-6-|-7---------------|-9-------6-------|
A|-7---------------|---------6-6-6-|-7---------------|-9-------6-------|
E|-5---------------|---------4-4-4-|-5---------------|-7-------4-------|




BRIDGE

 4/4
E|-----------------|-----------------|-----------------|-----------------|
B|-----------------|-----------------|-----------------|-----------------|
G|-6-6-x-x-x-x-x-x-|-x-x-x-x-x-x-x-4-|-6-6-x-x-x-x-x-x-|-x-x-x-x-x-x-x-4-|  x3
D|-6-6-x-x-x-x-x-x-|-x-x-x-x-x-x-x-4-|-6-6-x-x-x-x-x-x-|-x-x-x-x-x-x-x-4-|
A|-4-4-x-x-x-x-x-x-|-x-x-x-x-x-x-x-2-|-4-4-x-x-x-x-x-x-|-x-x-x-x-x-x-x-2-|
E|-----------------|-----------------|-----------------|-----------------|


 4/4
E|-----------------|-----------------|-----------------|-----------------|
B|-----------------|-----------------|-----------------|-----------------|
G|-6-6-x-x-6-x-x-x-|-x-x-x-x-x-x-x-4-|-6-6-x-x-x-x-x-x-|-x-x-x-x-x-x-x-4-|
D|-6-6-x-x-6-x-x-x-|-x-x-x-x-x-x-x-4-|-6-6-x-x-x-x-x-x-|-x-x-x-x-x-x-x-4-|
A|-4-4-x-x-4-x-x-x-|-x-x-x-x-x-x-x-2-|-4-4-x-x-x-x-x-x-|-x-x-x-x-x-x-x-2-|
E|-----------------|-----------------|-----------------|-----------------|
 |
 |
E|-----------------|-----------------|-----------------|-----------------|
B|-7-7-x-x-7-------|-----------9-9-9-|-7-7-7-7-9-9-9-9-|-7-7-7-7-9-9-9-9-|
G|-6-6-x-x-6-------|-----------6-6-6-|-6-6-6-6-6-6-6-6-|-6-6-6-6-6-6-6-6-|
D|-----------------|-----------------|-----------------|-----------------|
A|-----------------|-----------------|-----------------|-----------------|
E|-----------------|-----------------|-----------------|-----------------|


 4/4
E|-----------------|-----------------|-----------------|-----------------|
B|-----------------|-----------------|-----------------|-----------------|
G|-6-6-x-x-x-x-x-x-|-x-x-x-x-x-x-x-4-|-2-2-x-x-x-x-x-2-|-4-4-4-4-4-4-4-4-|
D|-6-6-x-x-x-x-x-x-|-x-x-x-x-x-x-x-4-|-2-2-x-x-x-x-x-2-|-4-4-4-4-4-4-4-4-|
A|-4-4-x-x-x-x-x-x-|-x-x-x-x-x-x-x-2-|-0-0-x-x-x-x-x-0-|-2-2-2-2-2-2-2-2-|
E|-----------------|-----------------|-----------------|-----------------|
 |
 |
E|-----------------|-----------------|-----------------|-----------------|
B|-7-7-7-7-9-9-9-9-|-7-7-7-7-9-9-9-9-|-7-7-7-7-9-9-9-9-|-7-7-7-7-9-9-9-9-|
G|-6-6-6-6-6-6-6-6-|-6-6-6-6-6-6-6-6-|-6-6-6-6-6-6-6-6-|-6-6-6-6-6-6-6-6-|
D|-----------------|-----------------|-----------------|-----------------|
A|-----------------|-----------------|-----------------|-----------------|
E|-----------------|-----------------|-----------------|-----------------|


 4/4
E|-----------------|-----------------|-----------------|-----------------|
B|-----------------|-----------------|-----------------|-----------------|
G|-6-6-6-6-6-6-6-6-|-----------------|-----------------|-----------------|
D|-6-6-6-6-6-6-6-6-|-7-7-7-7-7-7-7-7-|-9-9-9-9-9-9-9-9-|-4-4-4-4-4-4-4-4-|--|
A|-4-4-4-4-4-4-4-4-|-7-7-7-7-7-7-7-7-|-9-9-9-9-9-9-9-9-|-4-4-4-4-4-4-4-4-|  |
E|-----------------|-5-5-5-5-5-5-5-5-|-7-7-7-7-7-7-7-7-|-2-2-2-2-2-2-2-2-|  |
 |                                                                          | x3
 |                                                                          |
E|-----------------|-----------------|-----------------|-----------------|  |
B|-7-7-7-9---9-9-9-|-7-7-7-9---9-9-9-|-7-7-7-9---9-9-9-|-7-7-7-9---9-9-9-|  |
G|-6-6-6-6---6-6-6-|-6-6-6-6---6-6-6-|-6-6-6-6---6-6-6-|-6-6-6-6---6-6-6-|--|
D|-----------------|-----------------|-----------------|-----------------|
A|-----------------|-----------------|-----------------|-----------------|
E|-----------------|-----------------|-----------------|-----------------|


 4/4                                                   7/8
E|-----------------|-----------------|-----------------|---------------|
B|-----------------|-----------------|-----------------|---------------|
G|-6-6-6-6-6-6-6-6-|-----------------|-----------------|---------------|
D|-6-6-6-6-6-6-6-6-|-7-7-7-7-7-7-7-7-|-9-9-9-9-9-9-9-9-|-9---9---6-6-6-|
A|-4-4-4-4-4-4-4-4-|-7-7-7-7-7-7-7-7-|-9-9-9-9-9-9-9-9-|-9---9---6-6-6-|
E|-----------------|-5-5-5-5-5-5-5-5-|-7-7-7-7-7-7-7-7-|-7---7---4-4-4-|
 |                                                       *   *
 |
E|-----------------|-----------------|-----------------|---------------|
B|-7-7-7-9---9-9-9-|-7-7-7-9---9-9-9-|-7-7-7-9---9-9-9-|---------------|
G|-6-6-6-6---6-6-6-|-6-6-6-6---6-6-6-|-6-6-6-6---6-6-6-|---------------|
D|-----------------|-----------------|-----------------|-9---9---6-6-6-|
A|-----------------|-----------------|-----------------|-9---9---6-6-6-|
E|-----------------|-----------------|-----------------|-7---7---4-4-4-|
                                                         *   *



INTRO
VERSE
CHORUS
BREAKDOWN
VERSE
CHORUS
BREAKDOWN
BRIDGE
CHORUS
CHORUS



Don't forget to rate! Thanks!
Tap to rate this tab
# A B C D E F G H I J K L M N O P Q R S T U V W X Y Z