Song name
# A B C D E F G H I J K L M N O P Q R S T U V W X Y Z

Rise Against - For Fiona tab

Tim McIlrath: For Fiona
Tuning: Half-Step Down
Tabbed by: SarkyGuitarist
Difficulty: Intermediate
Email: sarkasticguitarist@gmail.com

This is only Tim's cover, and is not played by the full band. 
It doesn't matter though I love this cover!
If there is a * over the chord, you need to find the strumming pattern too.
Email any corrections or questions, or comment! :) 

Intro:

e|-3-333333--------------------------------------------------------------|
B|-3-333333-3-333333-8-888888--------------------------------------------|
G|-5-555555-3-333333-9-999999-7-777777-5555-7777-9999-7777-5~-5/77777777-|
D|-5-555555-5-555555-9-999999-7-777777-5555-7777-9999-7777-5~-5/77777777-|
A|-3-333333-5-555555-7-777777-5-555555-3333-5555-7777-5555-3~-3/55555555-|
E|----------3-333333-----------------------------------------------------|

Verse 1:
    * *  * *  * * *    x2
e|---------------------|
B|---------------------|
G|-10-7- 9-5-10-7-5-7~-|
D|-10-7-10-5-10-7-5-7~-|
A|- 8-5- 8-3- 8-5-3-5~-|
E|---------------------|

Chorus:
   * * * * *   * *   
e|-----------|-----------------|
B|-----------|-----------5~----|
G|-5-9-----5-|-5-9-------5~-7~-|
D|-5-9-7-5-5-|-5-9-7~-5~-5~-7~-|
A|-3-7-7-5-3-|-3-7-7~-5~-3~-5~-|
E|-----5-3-3-|-----5~-3~-------|

Verse:
    * *  * *  * * *    x1
e|---------------------|
B|---------------------|
G|-10-7- 9-5-10-7-5-7~-|
D|-10-7-10-5-10-7-5-7~-|
A|- 8-5- 8-3- 8-5-3-5~-|
E|---------------------|

Chorus:
   * * * * *   * *   
e|-----------|-----------------|
B|-----------|-----------5~----|
G|-5-9-----5-|-5-9-------5~-7~-|
D|-5-9-7-5-5-|-5-9-7~-5~-5~-7~-|
A|-3-7-7-5-3-|-3-7-7~-5~-3~-5~-|
E|-----5-3-3-|-----5~-3~-------|


Bridge:
                                 x2
e|---3---3----3---3----3---3-----| 
B|--1---1----1---1----1---1---3~-|
G|-5---5----4---4----2---2----4~-|
D|----------------------------5~-|
A|-------------------------------|
E|-------------------------------|
Tap to rate this tab
# A B C D E F G H I J K L M N O P Q R S T U V W X Y Z