Song name
# A B C D E F G H I J K L M N O P Q R S T U V W X Y Z

Rise Against - Paper Wings tab

DROP D TUNING ( DADGBE )

Intro-Guitar 1
E|-----------------------------------------------------------------------|
B|-----------------------------------------------------------------------|
G|-----------------------------------------------------------------------|
D|-8-8-8-8-8-8-8-8--7-7-7-7-12121212--5-5-5-5-5-5-5-5--6-6-6-6-6-6-6-6---|  x1
A|-6-6-6-6-6-6-6-6--5-5-5-5-10101010--3-3-3-3-3-3-3-3--6-6-6-6-6-6-6-6---|
D|-----------------------------------------------------6-6-6-6-6-6-6-6---|

GTR 1
E|-x-x-x-x-x-x-x-x--x-x-x-x-x-x-x-x--x-x-x-x-x-x-x-x--x-x-x-x-x-x-x-x-|
B|-12--10--9--10-9--12-10--14-14-14--10--9--7--9---7--7--5--9--7----5-|
G|--------------------------------------------------------------------|
D|--------------------------------------------------------------------|  x2
A|--------------------------------------------------------------------|
D|--------------------------------------------------------------------|

GTR 2
E|-----------------------------------------------------------------------|
B|-----------------------------------------------------------------------|
G|-----------------------------------------------------------------------|
D|-8-8-8-8-8-8-8-8--7-7-7-7-12121212--5-5-5-5-5-5-5-5--6-6-6-6-6-6-6-6---|  x2
A|-6-6-6-6-6-6-6-6--5-5-5-5-10101010--3-3-3-3-3-3-3-3--6-6-6-6-6-6-6-6---|
D|-----------------------------------------------------6-6-6-6-6-6-6-6---|


FIRST VERSE
E|----------------------------------------|
B|----------------------------------------|
G|------------------3-3-3/5---------------| 3x
D|-1010----1-1-1-1--3-3-3/5--6-6-6-6-6-6--|
A|-1010----1-1-1-1--1-1-1/3--6-6-6-6-6-6--|
D|-1010----1-1-1-1-----------6-6-6-6-6-6--|

E|---------------------------------------------------------------------|
B|---------------------------------------------------------------------|
G|------------------3-3-3-3-3-3----------------------------------------|
D|-1010----1-1-1-1--3-3-3-3-3-3--5-5-5-6-6-6-6-6-6-6-6-6-6-6-6-6-6-6-6-|
A|-1010----1-1-1-1--1-1-1-1-1-1--5-5-5-6-6-6-6-6-6-6-6-6-6-6-6-6-6-6-6-|
D|-1010----1-1-1-1---------------5-5-5-6-6-6-6-6-6-6-6-6-6-6-6-6-6-6-6-|

E|---------------------------------------------------------|
B|---------------------------------------------------------|
G|-3-3-3-3-3-3-3-3-3---------------------------------------|
D|-3-3-3-3-3-3-3-3-3-5-5-5-6-6-6-6-6-6-6-6-6-6-6-6-6-6-6-8-|
A|-1-1-1-1-1-1-1-3-3-5-5-5-6-6-6-6-6-6-6-6-6-6-6-6-6-6-6-8-|
D|-------------------5-5-5-6-6-6-6-6-6-6-6-6-6-6-6-6-6-6-8-|


CHORUS

Guitar 1
Eb|----------------------------------------------------------------------|
Bb|----------------------------------------------------------------------|
Gb|----------------------------------------------------------------------|
Db|-8-8-8-8-8-8-8-8--7-7-7-7-12121212--5-5-5-5-5-5-5-5--6-6-6-6-6-6-6-6--| x2
Ab|-6-6-6-6-6-6-6-6--5-5-5-5-10101010--3-3-3-3-3-3-3-3--6-6-6-6-6-6-6-6--|
Eb|-----------------------------------------------------6-6-6-6-6-6-6-6--|

GTR 2
Eb|-x-x-x-x-x-x-x-x--x-x-x-x-x-x-x-x--x-x-x-x-x-x-x-x--x-x-x-x-x-x-x-x-|
Bb|-12--10--9--10-9--12-10--14-14-14--10--9--7--9---7--7--5--9--7----5-|
Gb|--------------------------------------------------------------------|
Db|--------------------------------------------------------------------| x2
Ab|--------------------------------------------------------------------|
Eb|--------------------------------------------------------------------|


SECOND VERSE
E|----------------------------------------|
B|----------------------------------------|
G|------------------3-3-3/5---------------| 3x
D|-1010----1-1-1-1--3-3-3/5--6-6-6-6-6-6--|
A|-1010----1-1-1-1--1-1-1/3--6-6-6-6-6-6--|
D|-1010----1-1-1-1-----------6-6-6-6-6-6--|

E|---------------------------------------------------------------------|
B|---------------------------------------------------------------------|
G|------------------3-3-3-3-3-3----------------------------------------|
D|-1010----1-1-1-1--3-3-3-3-3-3--5-5-5-6-6-6-6-6-6-6-6-6-6-6-6-6-6-6-6-|
A|-1010----1-1-1-1--1-1-1-1-1-1--5-5-5-6-6-6-6-6-6-6-6-6-6-6-6-6-6-6-6-|
D|-1010----1-1-1-1---------------5-5-5-6-6-6-6-6-6-6-6-6-6-6-6-6-6-6-6-|

E|---------------------------------------------------------|
B|---------------------------------------------------------|
G|-3-3-3-3-3-3-3-3-3---------------------------------------|
D|-3-3-3-3-3-3-3-3-3-5-5-5-6-6-6-6-6-6-6-6-6-6-6-6-6-6-6-8-|
A|-1-1-1-1-1-1-1-3-3-5-5-5-6-6-6-6-6-6-6-6-6-6-6-6-6-6-6-8-|
D|-------------------5-5-5-6-6-6-6-6-6-6-6-6-6-6-6-6-6-6-8-|


CHORUS

Guitar 1
E|----------------------------------------------------------------------|
b|----------------------------------------------------------------------|
G|----------------------------------------------------------------------|
D|-8-8-8-8-8-8-8-8--7-7-7-7-12121212--5-5-5-5-5-5-5-5--6-6-6-6-6-6-6-6--| x2
A|-6-6-6-6-6-6-6-6--5-5-5-5-10101010--3-3-3-3-3-3-3-3--6-6-6-6-6-6-6-6--|
D|-----------------------------------------------------6-6-6-6-6-6-6-6--|

GTR 2
E|-x-x-x-x-x-x-x-x--x-x-x-x-x-x-x-x--x-x-x-x-x-x-x-x--x-x-x-x-x-x-x-x-|
B|-12--10--9--10-9--12-10--14-14-14--10--9--7--9---7--7--5--9--7----5-|
G|--------------------------------------------------------------------|
D|--------------------------------------------------------------------| x2
A|--------------------------------------------------------------------|
D|--------------------------------------------------------------------|


Solo (my E-string doesnt really work, not tuned, sometimes floyd rose makes me angry.. sry.
i dont know if the solo correct than. solo-tab from other Pwriters)

|-0--0-0-2b-p0---0---0-0-0-2b-p0---0---0-0-0-2b-p0---0--0-0-0---------|
|--------------4-----------------4-----------------4----------4-4-4-4-|
|---------------------------------------------------------------------|
|---------------------------------------------------------------------|
|---------------------------------------------------------------------|
|---------------------------------------------------------------------|

|7-------0h2h4-0h2h4-0h2h4-0h2h4-0h2h4-0h2h4-5--5-5-4-4-4-7--7-7-7-7-7-7-7-|
|0---0---------------------------------------5--5-5-5-5-5-5--5-5-5-5-5-5-5-|
|--------------------------------------------------------------------------|
|--------------------------------------------------------------------------|
|--------------------------------------------------------------------------|
|--------------------------------------------------------------------------|

|-0--0-0-2b-p0---------0-2b-p0---0--0-0-0-0-0-0----------------0---|
|--------------4-4---4---------4----0-0-0-0-0-0-4--4-4-4-4-4-4-0---|
|-----------------------------------------------4--4-4-4-4-4-4-----|
|------------------------------------------------------------------|
|------------------------------------------------------------------|
|------------------------------------------------------------------|

|-7-0-0-5-0-0-4-0-7-0-0-5-0-0-4-0-4-5-4-7--7-7-7-7-7-7-7-4-5-4-0----|
|---------------------------------------5--5-5-5-5-5-5-5-------0----|
|-------------------------------------------------------------------|
|-------------------------------------------------------------------|
|-------------------------------------------------------------------|
|-------------------------------------------------------------------|


BRIDGE
Guitar 1
E|---
B|---
G|-8-
D|-8-
A|-6-
D|---

GTR 2 - CLEAN
E|---------------------------------------------------------------------|
B|---------------------------------------------------------------------|
G|---------------------------------------------------------------------|
D|-8-8-8-8-8-8-8-8--7-7-7-7-12121212--5-5-5-5-5-5-5-5--6-6-6-6-6-6-6-6-|
A|-6-6-6-6-6-6-6-6--5-5-5-5-10101010--3-3-3-3-3-3-3-3--6-6-6-6-6-6-6-6-|
D|-----------------------------------------------------6-6-6-6-6-6-6-6-|


GTR 2 - CLEAN                                          |--DISTORTION----|
E|----------------------------------------------------------------------|
B|----------------------------------------------------------------------|
G|----------------------------------------------------------------------|
D|-8-8-8-8-8-8-8-8--7-7-7-7-12121212--5-5-5-5-5-5-5-5--6-6-6-6-6-6-6-6--|
A|-6-6-6-6-6-6-6-6--5-5-5-5-10101010--3-3-3-3-3-3-3-3--6-6-6-6-6-6-6-6--|
D|-----------------------------------------------------6-6-6-6-6-6-6-6--|


CHORUS
E|----------------------------------------------------------------------|
b|----------------------------------------------------------------------|
G|----------------------------------------------------------------------|
D|-8-8-8-8-8-8-8-8--7-7-7-7-12121212--5-5-5-5-5-5-5-5--6-6-6-6-6-6-6-6--| x4
A|-6-6-6-6-6-6-6-6--5-5-5-5-10101010--3-3-3-3-3-3-3-3--6-6-6-6-6-6-6-6--|
D|-----------------------------------------------------6-6-6-6-6-6-6-6--|

E|---|
b|---|
G|-8-|
D|-8-|
A|-6-|
D|---|
Tap to rate this tab
# A B C D E F G H I J K L M N O P Q R S T U V W X Y Z