Song name
# A B C D E F G H I J K L M N O P Q R S T U V W X Y Z

Rise Against - Blood To Bleed chords

Highlighted       Show chord diagrams
I've been trying around with lot's of other tabs so far, but no-one did fit to how I 
heard the song.
To this one I included the Bass-Riffs, because they're quite easy to play and it just 
sounds a lot better _with_ them.
Some things needed to know:

Standard-Tuning, time signature: 6/8:
During the Verse you should align to the following muting-pattern:

C#m     | C#m B
*xx xxx | xxx +++
C#m     | C#m A
*xx xxx | xxx +++
C#m     | C#m
*xx xxx | xxx xxx
E   F#m | C#m
+++ +++ | *** ***

*: open
x: Palm-Muted
+: Half-Muted (Just a little bit palmmuted, almost open)

(Intro)

|-----------------------------|
|-----------------------------|
|-----------------------------|
|--------6-6---4-4------------|
|--4-4-4-----7-----7-6-6-6----|
|-----------------------------|

played 4 times


(Verse 1)

C#m                   B
This place rings with echoes of

C#m                    A
Lives once lived but now are lost

C#m                        E F#m C#m
Time spent wondering about tomorrow

C#m                        B
I don't care if we lose it all tonight

C#m               A
    Up in flames, burning bright

C#m                        E F#m C#m
    Warming the air of the world


(Chorus)

         A            E       B        C#m
"I don't love you anymore" is all I remember you telling me

A            E       B    C#m B
Never have I felt so cold

         A                E
But I've no more blood to bleed

           B                C#m               A            B
 'Cause my heart has been draining into the sea ohh woah oh


(Verse 2)

C#m                  B
Steps, I take in your footsteps

C#m                            A
 Aren't getting me closer to what is left

C#m                             E     F#m C#m
 Of the dreams of what I once claimed to know

C#m                   B
Within my bones this resonates

C#m                    A
Boiling blood will circulate

C#m                               E   F#m C#m
Could you tell me again what you did this for?


 (Chorus)

         A            E       B        C#m
"I don't love you anymore" is all I remember you telling me

A            E       B    C#m B
Never have I felt so cold

         A                E
But I've no more blood to bleed

           B                C#m               A            B
 'Cause my heart has been draining into the sea ohh woah oh

(Solo)

C#m A E B (x2)

(Bridge)

C#m     A
Still I wait

       E              G#m
With a hope inside of me (inside of me)

   C#m                A
So still (so still) I wait (I wait)

E
 Until again we meet

G#m
 Until again we meet

(Intro 4x)

|-----------------------------|
|-----------------------------|
|-----------------------------|
|--------6-6---4-4------------|
|--4-4-4-----7-----7-6-6-6----|
|-----------------------------|
Within my bones this resonates

|-----------------------------|
|-----------------------------|
|-----------------------------|
|--------6-6---4-4------------|
|--4-4-4-----7-----7-6-6-6----|
|-----------------------------|
Boiling blood will circulate


|----------------------------------------------------------|
|----------------------------------------------------------|
|----------------------------------------------------------|
|--------6-6---4-4-----------------------------------------|
|--4-4-4-----7-----7-6-6-6-------------4-4-4-4-4-4---------|
|--------------------------0-0-0-2-2-2---------------------|

Could you tell me again what you did this for?


(Chorus)


         A            E       B        C#m
"I don't love you anymore" is all I remember you telling me

A            E       B    C#m B
Never have I felt so cold

         A                E
But I've no more blood to bleed

           B                C#m               A            B
 'Cause my heart has been draining into the sea ohh woah oh


A   B
Ohh Woah Ohh

A       B
Still I wait

        A                         B
 With a hope (so still) inside of me (I wait)

    A              B
 So still (a hope) I wait (inside of me)

C#m ~ (Let Ring)
Tap to rate this tab
 
# A B C D E F G H I J K L M N O P Q R S T U V W X Y Z