Song name
# A B C D E F G H I J K L M N O P Q R S T U V W X Y Z

Rise Against - Its Late tab

-------------------------------------------------------------------------------
                             It's Late - Rise Against
-------------------------------------------------------------------------------
Tabbed by: WildGrim
E-mail: Grim-117@hotmail.com

Tuning: Half-step down

This is a song that Tim played multiple times during The Revival tour.
Played with a capo on the 5th fret

Intro riff
eb|-------5---0-0-0-0-0-----|
Bb|-5-----5-7-0-0-0-0-0-----|
Gb|-7-6---6---1-1-1-1-1-1-2-|
Db|-7---7-7---2-2-2-2-2-----|
Ab|-0---------2-2-2-2-2-----|
Eb|-------------------------|

Play this part 4x
eb|---------------|
Bb|-----------2---|
Gb|-------2-----2-|
Db|-----2---2-----|
Ab|-0-0-----------|
Eb|---------------|

Play these sections together 2x
eb|-------------------------------------------------------------|
Bb|-----------2-------------2-------------2---------------------|
Gb|-------2-----2-------2-----2-------2-----2-------2-------2---|
Db|-----2---2---------2---2---------2---2---------2---2---2---2-|
Ab|-0-0-----------0-0-------------------------------------------|
Eb|-----------------------------4-2-----------2-2-------0-------|

eb|-----------------------------------------------------------------|
Bb|---------3---------------0---------------2---------------0-------|
Gb|-----2-----2---2-----1-----1---1-----2-----2---2-----1-----1---1-|
Db|---0---0-----0-----2---2-----2-----2---2-----2-----2---2-----2---|
Ab|-0---------------2---------------0-------------------------------|
Eb|-------------------------------------------------2---------------|

After that it's these sections together 2x
eb|---------------------------------------------------------------|
Bb|-----------2-----------------------------2---------------------|
Gb|-------2-----2-------2-------2-------2-----2-------2-------2---|
Db|-----2---2---------2---2---2---2---2---2---------2---2---2---2-|
Ab|-0-0-----------0-0---------------------------------------------|
Eb|-------------------------4-------2-----------2-2-------0-------|

eb|-----------------------------------------------------------------|
Bb|---------3---------------0---------------2---------------0-------|
Gb|-----2-----2---2-----1-----1---1-----2-----2---2-----1-----1---1-|
Db|---0---0-----0-----2---2-----2-----2---2-----2-----2---2-----2---|
Ab|-0---------------2---------------0-------------------------------|
Eb|-------------------------------------------------2---------------|

Strum this chord for a bit after that
eb|-0-|
Bb|-0-|
Gb|-1-|
Db|-2-|
Ab|-2-|
Eb|---|

This next part is a bit hard to tab out, but it goes a little something like this: 
Played 4x
eb|--------------------------------------|
Bb|-2-2-22-2-2-2-2-2-22-22-2-2-2-2-2-2-2-|
Gb|-2-2-22-2-2-2-2-2-22-22-2-2-2-2-2-2-2-|
Db|-2-2-22-2-2-2-2-2-22-22-2-2-2-2-2-2-2-|
Ab|-0-0-00-0-0-0-------------------------|
Eb|--------------4-2-22-22-2-2-2-2-0-0-0-|

eb|----------------------0-0-00-|
Bb|-3-3-33-0-0-00-2-2-22-0-0-00-|
Gb|-2-2-22-1-1-11-2-2-22-1-1-11-|
Db|-0-0-00-2-2-22-2-2-22-2-2-22-|
Ab|-0-0-00-2-2-22-0-0-00-2-2-22-|
Eb|-----------------------------|

After that play this
eb|------------------------------------------------------------|
Bb|-0-0-00-0-0-00-3-3-33-3-3-3-3-3-0-0-00-2-2-22--------3-3-33-|
Gb|-2-2-22-1-1-11-2-2-22-2-2-2-2-2-2-2-22-2-2-22-4-4-44-2-2-22-|
Db|-4-4-44-2-2-22-0-0-00-0-0-0-0-0-4-4-44-2-2-22-4-4-44-0-0-00-|
Ab|-4-4-44-2-2-22-0-0-00-0-0-0-0-0-4-4-44-0-0-00-2-2-22-0-0-00-|
Eb|----------------------------------------------2-2-22--------|

eb|-------------------------------------------------|
Bb|-0-0-00-0-0-00-2-2-22-3-3-33-0-0-0-0-0-0-0-0-----|
Gb|-2-2-22-1-1-11-2-2-22-2-2-22-2-2-2-2-1-1-1-1-1-2-|
Db|-4-4-44-2-2-22-2-2-22-0-0-00-4-4-4-4-2-2-2-2-----|
Ab|-4-4-44-2-2-22-0-0-00-0-0-00-4-4-4-4-2-2-2-2-----|
Eb|-------------------------------------------------|

Then back to this part 4x
eb|---------------|
Bb|-----------2---|
Gb|-------2-----2-|
Db|-----2---2-----|
Ab|-0-0-----------|
Eb|---------------|

Play these sections together again 2x
eb|-------------------------------------------------------------|
Bb|-----------2-------------2-------------2---------------------|
Gb|-------2-----2-------2-----2-------2-----2-------2-------2---|
Db|-----2---2---------2---2---------2---2---------2---2---2---2-|
Ab|-0-0-----------0-0-------------------------------------------|
Eb|-----------------------------4-2-----------2-2-------0-------|

eb|-----------------------------------------------------------------|
Bb|---------3---------------0---------------2---------------0-------|
Gb|-----2-----2---2-----1-----1---1-----2-----2---2-----1-----1---1-|
Db|---0---0-----0-----2---2-----2-----2---2-----2-----2---2-----2---|
Ab|-0---------------2---------------0-------------------------------|
Eb|-------------------------------------------------2---------------|

And then it all ends here
eb|--------------------------------------|
Bb|-2-2-22-2-2-2-2-2-22-22-2-2-2-2-2-2-2-|
Gb|-2-2-22-2-2-2-2-2-22-22-2-2-2-2-2-2-2-|
Db|-2-2-22-2-2-2-2-2-22-22-2-2-2-2-2-2-2-|
Ab|-0-0-00-0-0-0-------------------------|
Eb|--------------4-2-22-22-2-2-2-2-0-0-0-|

eb|----------------------0-0-00-|
Bb|-3-3-33-0-0-00-2-2-22-0-0-00-|
Gb|-2-2-22-1-1-11-2-2-22-1-1-11-|
Db|-0-0-00-2-2-22-2-2-22-2-2-22-|
Ab|-0-0-00-2-2-22-0-0-00-2-2-22-|
Eb|-----------------------------|

eb|--------------------------------------|
Bb|-2-2-22-2-2-2-2-2-22-22-2-2-2-2-2-2-2-|
Gb|-2-2-22-2-2-2-2-2-22-22-2-2-2-2-2-2-2-|
Db|-2-2-22-2-2-2-2-2-22-22-2-2-2-2-2-2-2-|
Ab|-0-0-00-0-0-0-------------------------|
Eb|--------------4-2-22-22-2-2-2-2-0-0-0-|

eb|-------|
Bb|-3-0-2-|
Gb|-2-1-2-|
Db|-0-2-2-|
Ab|-0-2-0-|
Eb|-------|

Hope this helps!
Tap to rate this tab
# A B C D E F G H I J K L M N O P Q R S T U V W X Y Z