Song name
# A B C D E F G H I J K L M N O P Q R S T U V W X Y Z

Rise Against - Paper Wings Acoustic tab

-------------------------------------------------------------------------------
                           Paper Wings (Acoustic) Solo - Rise Against
-------------------------------------------------------------------------------
Tabbed by: Conballz

Such a beautiful little solo to a great acoustic version of this song. This is the solo to
Chris Chasse's version, (Rise Against's old guitarist), if you were unsure where I was getting
this from. If you haven't heard it, look it up! It's great. :P I learned the chords off another
tab on this, which is where the tuning is from. It didn't have the solo so I tried my hand at it.
Might be a few little slips of notes but I think it's fairly accurate. :) Also it's my first tab,
so don't be surprised if there is a few errors. :P

Tuning: Standard (Capo on 3rd Fret)

e|------------------------------------------------------------------------------------------|
B|------------------------------------------------\11-8h9p8-11-9-8h9p8----------------------|
G|-8-7h8-10p8p7-8--7h8-10p8p7-8--7h8-10p8p7-8--8p7p0-----------------------8-8/10-10p9p8-8--|
D|------------------------------------------------------------------------------------------|
A|------------------------------------------------------------------------------------------|
E|------------------------------------------------------------------------------------------|

e|---------------------------------------------------------------------------|
B|----8-/15-15p13p12p11-11/13-13p12p11-11-9-(9)\6-8/9-8-6--------------------|
G|-\8-----------------------------------------------------8------------------|
D|---------------------------------------------------------------------------|
A|---------------------------------------------------------------------------|
E|---------------------------------------------------------------------------|

e|---------------------------------11-15-13-11-10-11-10-11-------------------|
B|-6-11h12h13h15-15p13p12p11--11-13------------------------15p13p12p11-11/13-|
G|---------------------------------------------------------------------------|
D|---------------------------------------------------------------------------|
A|---------------------------------------------------------------------------|
E|---------------------------------------------------------------------------|

e|-11-13-13-11-10h11-11------------------------------------------------------|
B|---------------------------------------------------------------------------|
G|---------------------------------------------------------------------------|
D|---------------------------------------------------------------------------|
A|---------------------------------------------------------------------------|
E|---------------------------------------------------------------------------|

Also, here is the intro bit at the start played over the guitar if anyone wants it.
Just mess around with it to make it sound better.

e|---------------------------------------------------------------------------|
B|---------------------------------------------------------------------------|
G|---------------------------------------------------------------------------|
D|-8-6-5-6-5-8-6-10-10-10---6-5---5-------5----------------------------------|
A|------------------------------8---8--8-6---8-6-----------------------------|
E|---------------------------------------------------------------------------|




************************************

| /   slide up
| \   slide down
| h   hammer-on
| p   pull-off

************************************
Tap to rate this tab
# A B C D E F G H I J K L M N O P Q R S T U V W X Y Z